PrimaNota.ru - самый крупный в мире бесплатный архив песенных текстов, аккордов, табулатур и нот


Hidden In Plain View - 20 Below - аккорды и текст, таба, бас-таба, видео

Регистрация Запомнить меня
Войти через:  Facebook Google Twitter Vk Yandex Mail.ru

Hidden In Plain View - 20 Below - аккорды и текст, таба, бас-таба, видео

Печатать
Просмотров: 79
20 Below
Hidden In Plain View
Hidden In Plain View
20 Below
Life In Dreaming
2005
Submitted by: paramore_fans@yahoo.com

Key: G

Tuning: Standard EADGBe

Chords used:
Em -  022000 or Em7 - 022033
C -   x32010 or C9 -  x32033
G -   320033
D -   xx0232
Am -  x02210
G/B - x2x033


Verse 1:
Em                               C
  This puzzled look you stare to me says
                   G
"You put me back together"
           D        C              Em
Her head's down she waits impatiently
                C
Scattered in my heart
                    G
torn up and ripped apart
D      C
  It's ripped apart


Guitar 2: Verse 1
e|----3---5---3-|
B|--3---3---3---|
G|--------------|
D|--------------| x8
A|--------------|
E|--------------|

Guitar 3: Verse 1
e|-------------3-|
B|-0-1-0-3-1-0---|
G|---------------|
D|---------------| x4
A|---------------|
E|---------------|


Verse 2: Bass enters
Em
  And I know I should have known
       C
By the times she looked at me
G
Brace yourself
         D       C
Strength finds a place in me


Guitar 2: Verse 2
e|-2-----3-------|
B|---3-----0-----|
G|-----0-----0---|
D|---------------| x4
A|---------------|
E|---------------|

Guitar 3: Verse 2
e|-------------3-|
B|-0-1-0-3-1-0---|
G|---------------|
D|---------------| x4
A|---------------|
E|---------------|


Chorus:
Em             C
  Just wait and you'll see
       G
you're everything I want
D           C
  And don't take this from me
Em             C
  Just wait and you'll see
       G
you're everything I want
D                 C
  Don't take this from me now


Guitar 2: Chorus
    Em        C          G    D
e|-----|--------------|-----|---|
B|-----|------3-1-0---|-----|---|
G|-2h4-|-2h4--------0-|-2h4-|-2-|
D|-----|--------------|-----|---| x2
A|-----|--------------|-----|---|
E|-----|--------------|-----|---|

Guitar 3: Chorus
e|-2-2-2-2-3-3-3-3-5-5-5-5-3-3-3-3-----------|
B|-3-3-3-3-3-3-3-3-3-3-3-3-3-3-3-3-----------|
G|-------------------------------------------|
D|-------------------------------------------|
A|-------------------------------------------|
E|-------------------------------------------|

e|-3-2----3-2----3-2----3-2-5-7-----|
B|-----3------3------3----------7-8-|
G|----------------------------------|
D|----------------------------------|
A|----------------------------------|
E|----------------------------------|


Interlude:

Em--C-- x2

Guitar 2: Interlude
     Em         C
e|-0-0-0-0-|-0-0-0-0-|
B|-0-0-0-0-|-1-1-1-1-|
G|-0-0-0-0-|-0-0-0-0-|
D|-2-2-2-2-|-2-2-2-2-|
A|-2-2-2-2-|-3-3-3-3-|
E|-0-0-0-0-|---------|

    Em       C
e|-------|-------|
B|-----3-|-----3-|
G|-2h4---|-2h4---|
D|-------|-------|
A|-------|-------|
E|-------|-------|


Guitar 3: Interlude
        Em              C
e|-----7------10-|-----7------10-|
B|-8------8------|-8------8------|
G|---7------7----|---7------7----|
D|---------------|---------------|
A|---------------|---------------|
E|---------------|---------------|

         Em                  C
e|-2--2h3p2---------|-2--2h3p2---------|
B|----------3--1--0-|----------3--1--0-|
G|------------------|------------------|
D|------------------|------------------|
A|------------------|------------------|
E|------------------|------------------|
         x2                  x2


Verse 3:
Em
  With the wind strong in my
C                         G
face I'm still staggering through
                  D
I'm closer to the ground
            C
than I will ever get to you
Em                     C
  Dirt deep beneath my fingernails
                    G
I'm gripping to the floor
                          D
I'm searching through the world
       C
always looking for something more


(Repeat Chorus)


Interlude: Beat Will change from fast to slow
Em---, Em--G--D--C-G/B x2


Guitar 2:
   Em   G   D   C   G/B
e|----|---|---|---|------|
B|----|---|---|---|------|
G|----|---|---|-5-|-7--9-|
D|----|---|---|-x-|-x--x-|
A|----|---|---|-3-|-5--7-|
E|----|---|---|---|------|

   Em   G      D       C   G/B
e|----|---|----------|----|----|
B|----|---|----------|----|----|
G|----|---|-7--9--11-|-17-|-16-|
D|----|---|-x--x---x-|--x-|--x-|
A|----|---|-5--7---9-|-15-|-14-|
E|----|---|----------|----|----|

Guitar 3: Effects


Bridge:
Em          G
  And these cold winter nights
    D
without you next to me
   C          G/B
It feels like twenty below
Em          G
  Frostbite on my heart
     D
This pain and suffering are
C             G/B
feelings that you don't know


Verse 3: beat changes to fast again
Em          G
  You Don't Know
          D
You Don't know

You Don't know


      C
these feelings that
G/B       Em
you don't know
          G
You Don't Know
        D
Does it feel like
   C          G/B     Em--Em--Em--
It feels like 20 below


Outro:
Em             C
  Just wait and you'll see
       G                D C Em(let ring)
you're everything I want
Добавлено: 23.12.2013
Другие материалы по этой песне:
  • Аккорды и текст

Страница создана 10.04.2012
http://primanota.ru/hidden-in-plain-view/20-below-chords.htm
Привет, Гость.
Предлагаем пройти революционный курс по гитаре.
Подарок от PrimaNota.Ru, забирай!