PrimaNota.ru - самый крупный в мире бесплатный архив песенных текстов, аккордов, табулатур и нот


the hics - Lines - бас-таба, видео

Регистрация Запомнить меня
Войти через:  Facebook Google Twitter Vk Yandex Mail.ru

the hics - Lines - бас-таба, видео

Печатать
Просмотров: 68
Уроки эстрадного вокала в Санкт-Петербурге
-------------------------------------------------------------------------------
                                LINES - The Hics
-------------------------------------------------------------------------------
Tabbed by: Evan

Tuning: Drop D

Amazing song from an amazing band. This was a little awkward to tab as the bass
is mixed to be kinda quiet.


Intro
(0:00 - 0:28)
REST


Chorus
(0:29 - 0:57)
G|------------------------------------|
D|------------------------------------| x3
A|------------------------------------|
D|8---7---7---0---0---2---3---5-6-8---|

G|------------------------------------------------|
D|------------------------------------------------|
A|------------------------------------------------|
D|8---7---7---0--0--0--2--2--2--3--3--3--5--5--5--|


Verse
(0:58 - 1:57)
G|-----------------------------------------|
D|-----------------------------------------| x8 (look below for variations the
A|-----------------------------------------|     7th and 8th times through it)
D|8-------7-------0--0----(0)-2--(2)-3---7-|

G|----------------------------------------|
D|----------------------------------------| (7th time)
A|----------------------------------------|
D|8-------7---7/14---0--0----0-2--2-3-----|

G|------------------------------------|--
D|------------------------------------|-- (8th time, slide from 5 down to 1,
A|------------------------------3---5\|1-  which takes the place from the
D|8-------7-------0--0----0/5-----5---|--  first 8 in the chorus)


Chorus (1st and 3rd times are the same. 2nd and 4th times have some cool fills)
(1:58 - 2:28)
G|------------------------------------------------|
D|------------------0-----------------------------| (2nd time, think triplets)
A|---------------0--------0-----------------------|
D|8---7---7---0--------0-----0--2--3--0--3--5--7--|

G|---------------------------------------------|
D|-------------------------3-0-----------------| (4th time, damn fun)
A|------------5/7~-5-3-1-0-----5-3-1-0---------|
D|8---7---7----------------------------5-3-2-0-|


Verse x8 (4th, 5th, 7th, and 8th times through have variations)
(2:29 - 3:28)
G|----------------------------------------|
D|----------------------------------------| (4th time)
A|--------------------------------------5-|
D|8-------7-------0--0----0-2/5--2-3/7----|

G|-------------------------------------|
D|-------------------------------------| (5th time)
A|-----------0x-7----------------------|
D|8-------7-------0--0----0-2--2-3-----|

G|-------------------------------------|
D|-------------------------------------| (7th time)
A|------------1/8----------------------|
D|8-------7-------0--0----0-2--2-3-----|

G|---------------------------------2-----------|
D|----------------------------------5332-------| (8th time, not too sure on this)
A|------------0---3-5-0-0---0--3-5------5310---|
D|8-------7---------------------------------532|


Bridge
(3:29 - 3:57)
REST

(3:58 - 4:27)
G|--------------------------------------------------|
D|--------------------------------------------------| x2
A|--------------------------------------------------|
D|3--5--------3--5--------0--3---2--1---3--5--------|

(4:28 -5:58)
G|------------------------------------------------------------------------|
D|------------------------------3-----------------------------------3-----|
A|---------5-----5-----------5-----5-----------5-----5-----------5-----5--|
D|5-----5-----8-----5-----5-----------5-----5-----8-----5-----5-----------|
                                                                             x6
G|------------------------------------------------------------------------|
D|------------------------------------------------------------------------|
A|---3--------3--------5--------5-----------------------------------------|
D|3-----3--3-----3--5-----5--5-----5--5--0--0--5--0--0--5--0--0--5--0--0--|


Outro
(5:59 - 6:16)


Hope you enjoy the tab, please comment if you find any errors and I'll correct them.


| /  slide up
| \  slide down
| h  hammer-on
| p  pull-off
| ~  vibrato
| +  harmonic
| x  Mute note
|( ) Sometimes played, listen to the song
===============================================================================
Добавлено: 22.06.2016
Другие материалы по этой песне:
  • Аккорды и текст

Страница создана 22.06.2016
http://primanota.ru/hics/lines-chords.htm
Привет, Гость.
Предлагаем пройти революционный курс по гитаре.
Подарок от PrimaNota.Ru, забирай!