PrimaNota.ru - самый крупный в мире бесплатный архив песенных текстов, аккордов, табулатур и нот


Hibou - Valium - таба, видео

Регистрация Запомнить меня
Войти через:  Facebook Google Twitter Vk Yandex Mail.ru

Hibou - Valium - таба, видео

Печатать
Просмотров: 78
Hibou - Valium
Track 2 from the Dunes EP (2013).

Tabbed by Isaac Murguia, May 2015.
Originally uploaded to Ultimate-Guitar.com
Contact: www.youtube.com/user/Goadiroth

Listen here:
https://hiboumichel.bandcamp.com/album/dunes-ep

INTRO:
  Gtr 1
e|--------------8--5--------------------------------|
B|----6---6---6------6------------------------------|
G|-7----7---7-----------7--7-5--5--7-5---------5----|
D|--------------------------------------7--5-7----7-|
A|--------------------------------------------------|
E|--------------------------------------------------|

e|-----------8--5-----------------------------------|
B|-6---6---6------6-----------------------------6-8-|
G|---7---7-----------7--7-5--5--7-5---------5-7-----|
D|-----------------------------------7--5-7---------|
A|--------------------------------------------------|
E|--------------------------------------------------|
  Gtr 2 (at very end of intro)
e|-----------------------------10-10-10-10-10-10-10-|
B|--------------------------------------------------|
G|--------------------------------------------------|
D|--------------------------------------------------|
A|--------------------------------------------------|
E|--------------------------------------------------|

CHORUS:
  Gtr 1 (same as intro)

  Gtr 2
e|-10-10-10-10-8-8-8-8---------------------|-----------------------------------------|
B|---------------------10-10-10-10-8-8-8-8-|-10-10-10-10-10-10-10-10-6-6-6-6-6-6-6-6-|
G|-----------------------------------------|-----------------------------------------|
D|-----------------------------------------|-----------------------------------------|
A|-----------------------------------------|-----------------------------------------|
E|-----------------------------------------|-----------------------------------------|
                                                       [x2]
e|-10-10-10-10-8-8-8-8---------------------|-------------------------|
B|---------------------10-10-10-10-8-8-8-8-|-10-10-10-10-10-10-10-10-| (bend near end)
G|-----------------------------------------|-------------------------|
D|-----------------------------------------|-------------------------|
A|-----------------------------------------|-------------------------|
E|-----------------------------------------|-------------------------|

e|-10-10-10-10-8-8-8-8---------------------|-----------------------------------------|
B|---------------------10-10-10-10-8-8-8-8-|-10-10-10-10-10-10-10-10-6-6-6-6-6-6-6-6-|
G|-----------------------------------------|-----------------------------------------|
D|-----------------------------------------|-----------------------------------------|
A|-----------------------------------------|-----------------------------------------|
E|-----------------------------------------|-----------------------------------------|

e|-10-10-10-10-8-8-8-8---------------------|--------------------------------------------------|
B|---------------------10-10-10-10-8-8-8-8-|-10-10-10-10-10-10-10-10--10/13-13-13-13-13-13-13-|
G|-----------------------------------------|--------------------------------------------------|
D|-----------------------------------------|--------------------------------------------------|
A|-----------------------------------------|--------------------------------------------------|
E|-----------------------------------------|--------------------------------------------------|

VERSE:
  Gtr 1
e|-----------------------------------------|--------------------------------------------------|
B|-------8------8-------------10-----------|-----8------8-----------10--------------10-10-----|
G|-----7------7---7---------9-----------9\-|---7------7---7-7-----9-----9---------9-------9-9-|
D|---8------8-------8/10-10-------10-10----|-8------8----------10----------10--10-------------|
A|-----------------------------------------|--------------------------------------------------|
E|-6---------------------------------------|--------------------------------------------------| [x2]
  Gtr 2 (1:00)
e|---------------------------|-------------------------|
B|---------------------------|-------------------------|
G|-10-10--10-9--5----------5-|-10-10--10-9--5------5---|
D|----------------7--7-5-7---|----------------7--7---7-|
A|---------------------------|-------------------------|
E|---------------------------|-------------------------|

e|-------------------------------------------|
B|-------------------------------------------|
G|-10-10--10-9--5----------------------------|
D|----------------7--7-5-7/10-10--5h7-777777-|
A|-------------------------------------------|
E|-------------------------------------------|

Repeat CHORUS

BRIDGE: [x2]
  Gtr 1
e|-----------------------------|-------------------1-1-----|
B|----------1--------3-3-1-----|----------1------------3-1-|
G|------0-2----2---2-------2-0-|------0-2----2---2---------|
D|-3--3------------------------|-3--3----------------------|
A|-----------------------------|---------------------------|
E|-----------------------------|---------------------------|

e|-----------------------------|-----------------111-3---|
B|----------1--------3-3-1-----|----------1------------3-|
G|------0-2----2---2-------2-0-|------0-2----2-----------|
D|-3--3------------------------|-3--3--------------------|
A|-----------------------------|-------------------------|
E|-----------------------------|-------------------------|
  Gtr 2
e|-----------------------------|-------------------8-8------|
B|----------6--------8-8-6-----|----------6------------10-8-|
G|------5-7----7---7-------7-5-|------5-7----7--------------|
D|-7--7------------------------|-7--7------------7----------|
A|-----------------------------|----------------------------|
E|-----------------------------|----------------------------|

e|-----------------------------|-----------------888-10----|
B|----------6--------8-8-6-----|----------6-------------10-|
G|------5-7----7---7-------7-5-|------5-7----7-------------|
D|-7--7------------------------|-7--7----------------------|
A|-----------------------------|---------------------------|
E|-----------------------------|---------------------------|

Repeat VERSE [x2]

OUTRO:
  Gtr 2 of CHORUS

End. Please rate! :D
Добавлено: 08.11.2015
Другие материалы по этой песне:
  • Аккорды и текст

Страница создана 08.11.2015
http://primanota.ru/hibou/valium-chords.htm
Привет, Гость.
Предлагаем пройти революционный курс по гитаре.
Подарок от PrimaNota.Ru, забирай!