PrimaNota.ru - самый крупный в мире бесплатный архив песенных текстов, аккордов, табулатур и нот


Hibou - Sunder - таба, видео

Регистрация Запомнить меня
Войти через:  Facebook Google Twitter Vk Yandex Mail.ru

Hibou - Sunder - таба, видео

Печатать
Просмотров: 144
Уроки эстрадного вокала в Санкт-Петербурге
Hibou - Sunder
Track 1 from the Dunes EP (2013).

Tabbed by Isaac Murguia, March 2015.
Originally uploaded to Ultimate-Guitar.com
Contact: www.youtube.com/user/Goadiroth

INTRO: [x2]
e|---------------------------|-------------------------|
B|---------------------------|-------------------------|
G|-9--9-7--7--------------77-|-9--9-7--7---------------|
D|-----------9--7--7-9--9----|-----------99--77777\5---|
A|---------------------------|-----------------------7-|
E|---------------------------|-------------------------|

e|----------------------------|-----------------------|
B|----------------------------|-----------------------|
G|-/9--9-7--7--------------77-|-9--9-7--7-------------|
D|------------9--7--7-9--9----|-----------99--7777777-|
A|----------------------------|-----------------------|
E|----------------------------|-----------------------|

VERSE:
e|-------------------------------------|--------------------------------------|
B|-------------------------------------|--------------------------------------|
G|-------------------------------------|--------------------------------------|
D|-------------------------------------|--------------------------------------|
A|-------------------22222222-22222222-|-------------------22222222-2/5555555-|
E|-33333333-00000000-------------------|-33333333-00000000--------------------| [x2]

CHORUS:
  Guitar 1 [x2]
e|---------------------------|-------------------------|
B|---------------------------|-------------------------|
G|-9--9-7--7--------------77-|-9--9-7--7---------------|
D|-----------9--7--7-9--9----|-----------99--77777\5---|
A|---------------------------|-----------------------7-|
E|---------------------------|-------------------------|

e|----------------------------|-----------------------|
B|----------------------------|-----------------------|
G|-/9--9-7--7--------------77-|-9--9-7--7-------------|
D|------------9--7--7-9--9----|-----------99--7777777-|
A|----------------------------|-----------------------|
E|----------------------------|-----------------------|
  Guitar 2
e|-------------------------------------------------|
B|-12--10------------10-12--10-----5---5---5---5---|
G|---------11-9--11-------------11---7---7---7---7-|
D|-------------------------------------------------|
A|-------------------------------------------------|
E|-------------------------------------------------| [x4]

Repeat VERSE
Repeat CHORUS

KEYBOARD RIGHT BEFORE BRIDGE:
e|-------------|
B|-12-12-12-12-|
G|-------------|
D|-------------|
A|-------------|
E|-------------|

BRIDGE:
  Guitar 1 (keyboard for guitar)
e|-------------------------------------|-------------------------------------|
B|-10----------------7-----------------|-------------10----7------------12---|
G|-------------------------------------|-7-----------------------------------|
D|-------------------------------------|-------------------------------------|
A|-------------------------------------|-------------------------------------|
E|-------------------------------------|-------------------------------------| [x3]

e|-------------------------------------|-------------------------------------|
B|-10----------------12----------------|-7-----------10----12b---------------|
G|-------------------------------------|-7-----------------------------------|
D|-------------------------------------|-------------------------------------|
A|-------------------------------------|-------------------------------------|
E|-------------------------------------|-------------------------------------|
  Guitar 2
e|-------------------------------------|-------------------------------------|
B|-------------------------------------|-------------------------------------|
G|-------------------------------------|--------------------------------4422-|
D|-22222222-22222222-44444444-44444444-|-00000000-00000000-00000000-4422-----|
A|-------------------------------------|-------------------------------------|
E|-------------------------------------|-------------------------------------| [x4]

Repeat CHORUS [x2]

End. Please rate! :D
Добавлено: 08.11.2015
Вам также может быть интересно:
Другие материалы по этой песне:
  • Аккорды и текст

Страница создана 08.11.2015
http://primanota.ru/hibou/sunder-chords.htm
Привет, Гость.
Предлагаем пройти революционный курс по гитаре.
Подарок от PrimaNota.Ru, забирай!