PrimaNota.ru - самый крупный в мире бесплатный архив песенных текстов, аккордов, табулатур и нот


Hibou - Glow - таба, видео

Регистрация Запомнить меня
Войти через:  Facebook Google Twitter Vk Yandex Mail.ru

Hibou - Glow - таба, видео

Печатать
Просмотров: 154
Hibou - Glow
From the "Glow / Hollow" single (2013).

Listen to the song here:
https://hiboumichel.bandcamp.com/track/glow

Tabbed by Isaac Murguia, January 2015.
Originally uploaded to Ultimate-Guitar.com
Contact: www.youtube.com/user/Goadiroth

INTRO: (bass part)
e|---------------------|
B|---------------------|
G|---------------------|
D|---------------------|
A|---------------------|
E|-9999-9999-9999-9999-| [x4]

VERSE 1:                                            [x2]
e|-----------------------------------------|---------------------|
B|-----------------------------------------|---------------------|
G|-----------------------------------------|---------------------|
D|---------------------4444-4444-4444-4444-|---------------------|
A|-4444-4444-4444-4444---------------------|-1111-1111-1111-1111-|
E|-----------------------------------------|---------------------| [x2]

CHORUS:
e|--------------------------------------------------------|      |------|
B|-11-11-11-11--9------------9----------------------------|      |------|
G|-----------------10--8--10---10--10-10\--6--8-888-------|      |------|
D|--------------------------------------------------8-\6--|      |-666--|
A|--------------------------------------------------------|      |------|
E|--------------------------------------------------------| [x4] |------|

VERSE 2:
  Guitar 1                                      [x2]
e|-------------------------------------|-------------------|
B|-------------------------------------|-------------------|
G|-------------------------------------|-------------------|
D|-------------------4444-444-4444-444-|-------------------|
A|-4444-444-4444-444-------------------|-1111-111-1111-111-|
E|-------------------------------------|-------------------| [x4]
  Guitar 2 (synth part)
e|-9----11---6---6--|
B|-9----11---6---6--|
G|-10---11---6---6--| (comes in after 2nd repetition
D|-11---13---8---8--|  of guitar 1)
A|-11---13---8---8--|
E|-9----11---6---6--| [x2]

Repeat CHORUS
Repeat VERSE 2 (only Guitar 1 [x2])

BRIDGE:
  Guitar 1 (synth part)
e|---------------------------------|
B|----9----------9-----------------|
G|-10---8-10--10---8-10--10-----10-|
D|---------------------------------|
A|---------------------------------|
E|---------------------------------| [x3]
                              [x7]
e|----------------------|-------------|-----|
B|----9----------9------|-------------|-----|
G|-10---8-10--10---8-10-|-10-10-10-10-|-10--|
D|----------------------|-------------|-----|
A|----------------------|-------------|-----|
E|----------------------|-------------|-----|

  Guitar 2 (bass part)                              [x2]
e|-----------------------------------------|---------------------|
B|-----------------------------------------|---------------------|
G|-----------------------------------------|---------------------|
D|-----------------------------------------|---------------------|
A|---------------------6666-6666-6666-6666-|---------------------|
E|-2222-2222-2222-2222---------------------|-6666-6666-6666-6666-| [x3]

e|-----------------------------------------|---------------------|------------------|
B|-----------------------------------------|---------------------|------------------|
G|-----------------------------------------|---------------------|------------------|
D|-----------------------------------------|---------------------|-8888-8888-8888-8-|
A|---------------------6666-6666-6666-6666-|---------------------|------------------|
E|-2222-2222-2222-2222---------------------|-6666-6666-6666-6666-|------------------|

Repeat CHORUS [x2]

End. Please rate! :D
Добавлено: 31.07.2015
Другие материалы по этой песне:
  • Аккорды и текст

Страница создана 31.07.2015
http://primanota.ru/hibou/glow-chords.htm
Привет, Гость.
Предлагаем пройти революционный курс по гитаре.
Подарок от PrimaNota.Ru, забирай!