PrimaNota.ru - самый крупный в мире бесплатный архив песенных текстов, аккордов, табулатур и нот


Hibou - Above Us - таба, видео

Регистрация Запомнить меня
Войти через:  Facebook Google Twitter Vk Yandex Mail.ru

Hibou - Above Us - таба, видео

Печатать
Просмотров: 176
Уроки эстрадного вокала в Санкт-Петербурге
Hibou - Above Us
Track 3 from the EP "Dunes" (2013).

Listen here:
http://hiboumichel.bandcamp.com/album/dunes-ep

Tabbed by Isaac Murguia, December 2014.
Originally uploaded to Ultimate-Guitar.com
Contact: www.youtube.com/user/Goadiroth

INTRO/VERSE:
e|--------------------------------|--------------------------|
B|----------13--------------8-----|-------6------------6-----|
G|-------12----12---------7---7---|-----5---5--------5---5---|
D|-13-13----------13--8-8-------8-|-6-6-------6--6-6-------6-|
A|--------------------------------|--------------------------|
E|--------------------------------|--------------------------| [x6]

CHORUS:
e|--------------------------------|---------------------------|
B|-------11-11-----------13-13-11-|-------11-11-------------8-|
G|-------------12-----------------|-------------12-10--8/10---|
D|-10-10-----------10-10----------|-10-10---------------------|
A|--------------------------------|---------------------------|
E|--------------------------------|---------------------------| [x4]

Repeat INTRO [x2] 
  Guitar 2 plays this lead:
e|-18-16-15------------------------------------------|
B|----------18-16-15---------------------------------|
G|-------------------17-15----------15-17b--15-------|
D|-------------------------17-15-17------------17-15-|
A|---------------------------------------------------|
E|---------------------------------------------------|

e|-18-18-16-15------------------------------------------------|
B|-------------18-16-15---------------------------16-16/18----|
G|----------------------17-15----------15-17b--15----------17-|
D|----------------------------17-15-17------------------------|
A|------------------------------------------------------------|
E|------------------------------------------------------------|

    "All my timing is clouded by your words 
     And still I'm waiting until my thoughts are heard... better"

Repeat CHORUS [x4]

BRIDGE:
e|-------------------------------------------------|-----------------------------------------|
B|-------------------11-11-------------------------|-----------------------------------------|
G|-12-12-12-12-12-12-------10-10-10-10-12-12-12-12-|-8-8-8-8-8-8-10-10----------------8-10---|
D|-------------------------------------------------|-------------------10-10-10-10-10--------|
A|-------------------------------------------------|-----------------------------------------|
E|-------------------------------------------------|-----------------------------------------| [x2]

e|-------------------------------------------------|-----------------------------------------------|
B|-------------------11-11-13-13-13-13-11-11-11-11-|-----------------------------------------------|
G|-12-12-12-12-12-12-------------------------------|-12\10-10-10-10-10-8-8-10-10-10-10-10-10-12-12-|
D|-------------------------------------------------|-----------------------------------------------|
A|-------------------------------------------------|-----------------------------------------------|
E|-------------------------------------------------|-----------------------------------------------|

e|-------------------------------------------------|---------------------------------------|
B|-------------------11-11-------------------------|---------------------------------------|
G|-12-12-12-12-12-12-------10-10-10-10-12-12-12-12-|-8-8-8-8-8-8-10-10---------------------|
D|-------------------------------------------------|-------------------10-10-10-10-10-10-8-|
A|-------------------------------------------------|---------------------------------------|
E|-------------------------------------------------|---------------------------------------|

Repeat BRIDGE
Repeat CHORUS [x8]

End. Please rate! :D
Добавлено: 31.07.2015
Вам также может быть интересно:
Другие материалы по этой песне:
  • Аккорды и текст

Страница создана 31.07.2015
http://primanota.ru/hibou/above-us-chords.htm
Привет, Гость.
Предлагаем пройти революционный курс по гитаре.
Подарок от PrimaNota.Ru, забирай!