PrimaNota.ru - самый крупный в мире бесплатный архив песенных текстов, аккордов, табулатур и нот


Hiatus Kaiyote - Molasses - бас-таба, видео

Регистрация Запомнить меня
Войти через:  Facebook Google Twitter Vk Yandex Mail.ru

Hiatus Kaiyote - Molasses - бас-таба, видео

Печатать
Просмотров: 88
Standard Tuning


0:14

|---------------------------------------------------------------------|
|---------------10-11-12----12---------------------13--------17-17~---|
|10-10----10-10--------------------13-12-10--12-13----13-11/----------|
|------------------------10----10-------------------------------------|


0:28

|-------------------7---7----------------------------------|
|------5h7---5h7p5-------------------5h7-------------------|
|---------------------5---5----------------3h5----875------|  x2
|3-5-6-------------------------3-5-6-----------5-----865---|


0:51

|--------------------5-----5---3-5-------------------101112--------------------|
|------3-5---35-----5---------5---------3-5/7-5---12-------12---10--10/12\10---|
|----5-----5----5-43---3-----3--------5-----------------------10--10-----------|
|123--------------------------------3------------------------------------------|


1:02

|------------------------------|
|-----10------8--6-5--7-8------|
|10-------6--------------------|
|---9---------------------7~---|


1:09

|-----------------------------------|
|----------------13--------17-17~---|
|13-12-10--12-13----13-11/----------|
|-----------------------------------|


1:18

|---10------------------------------------|
|-10--10---------12-----------------------|
|8------10-12-13----10-11121110-----8-10--|
|--------------------------------10-------|
                       \__  __/
                          \/
                      11-12-11-10

|---10------------------------------------|
|-10--10---------12-----------------------|
|8------10-12-13----101112---------6-66---|
|-------------------------11---6h8--------|

|---10---------------------------------------|
|-10--10---------12------------------10-12---|
|8------10-12-13----10-11121110---12---------|
|--------------------------------------------|

|---10----------------------------------------|
|-10--10---------12-----------13/15\13-13-----|
|8------10-12-13----101112--------------------|
|-------------------------11-------------11---|

|---10---------------------------------------|
|-10--10---------12------------------10-12---|
|8------10-12-13----10-11121110---12---------|
|--------------------------------------------|

|---10-------------------------------------|
|-10--10---------12-----------13-----------|
|8------10-12-13----101112-----------------|
|-------------------------11----11---6h8---|

|---10-------------------------------10-12---|
|-10--10---------12---------------12---------|
|8------10-12-13----10-11121110--------------|
|--------------------------------------------|

|---10--------------------------------|
|-10--10---------12-------------------|
|8------10-12-13----101112------------|
|-------------------------11~----11---|


2:03

|--------------|
|----5---5-----|
|--------------|
|3~--------3---|

|---------------------------------------|
|----------------------------5------5---|
|5-5--5---5-----5-----------------------|
|-------5-----5---5---3-3--3---3--3--3--|

|--------------------------------------7-------|
|--------------34---55----5------5----7-7---7--|
|5-5--5---5--55--------------------345---5-----|
|-------5--------3------3---3---3--------------|

|-----------------7----------|
|--------7-5-----7-----------|
|------55-5----5----5--------|
|335566------------------5---|


2:26

|--------------------------------------------------------------------------|
|----3-5----3-5------------------345---3-5----7h8p7---------10-----10------|
|--5------5-----5-43---3---33-55-----5------5-------108---10--10-------10--|
|3-------------------3----3----------------------------108------8----8-----|



2:38

|---------------------|
|----8--6-5--7-8------|
|6--------------------|
|----------------7~---|

|-----------------------------------|
|--------------------------17-17~---|
|13-12-10--12-13----13-11/----------|
|----------------11-----------------|


2:55

|------------------------------------------1012h141210--------------------|
|----10~-12~-10~------------10~-------10h12-----------1210----------------|
|10~-------------13~--6/10~-----101213--------------------10-13p12p10h12--| This last part is played fast 
|-------------------------------------------------------------------------|


3:28

|-------------|
|-------------|
|---3~-5~-3~--|
|3~-----------|

|------------------------|
|------------------------|
|--------------------66--|  x3
|33--33--33--66--66------|

|------------------------|
|------------------------|
|--------------------6~--|  
|33--33--33--66--66------|


4:03

|----------------------------------------------------------|
|--3--------------------------3----------------------13----|
|-3-3------5-----------3-5---3-3------5--101112------------|
|1---3-5\----3-4543--5------1---3-5-6----------11~-11--11--|

|-------------------------------------------------------------|
|--3--------------------------3---------567---13p12h13----13--|
|-3-3------5-----------3-5---3-3------5----6~---------13------|
|1---3-5-6---3-4543--5------1---3-5-6-------------------11----|

|-------------------------------------------------------|
|--3----------------------7----3------------------------|
|-3-3------5---------8-10-----3-3------5-101112----13\--|
|1---3-5-6---3-4543----------1---3-5-6---------11~------|

|-----------------------------------------------------|
|--3------------------------(5)---3---------5-7-8-----|
|-3-3------5-10-11121110\--------3-3------5-------6~~~|
|1---3-5-6-----------------113--1---3-5-6-------------|
                           \ /
                          1-1-3


Добавлено: 16.12.2015
Другие материалы по этой песне:
  • Аккорды и текст

Страница создана 16.12.2015
http://primanota.ru/hiatus-kaiyote/molasses-chords.htm
Привет, Гость.
Предлагаем пройти революционный курс по гитаре.
Подарок от PrimaNota.Ru, забирай!