PrimaNota.ru - самый крупный в мире бесплатный архив песенных текстов, аккордов, табулатур и нот


Hiatus Kaiyote - The Lung - таба, видео

Регистрация Запомнить меня
Войти через:  Facebook Google Twitter Vk Yandex Mail.ru

Hiatus Kaiyote - The Lung - таба, видео

Печатать
Просмотров: 71
hey,

this is my tab submission of "the lung" by Hiatus Kaiyote. The 7 bar guitar riff is as simple as beautiful and
nobody did it yet, so enjoy :)
The tabs you see are from the intro, that's why there are slight differences between each of the two patterns.

One quick tipp: I play lowest chord note with my ring finger, next with my index, then the middle finger and
do the hammer-on with the pinkie. In bar 6, you might have to play the 3rd fret of the G-string barrée with 
your index. try playing the other chords like that as well if you like it better.


Intro 1/2:


 Ebmaj7         Am11            C#maj7          Abmaj7/9
e--------------|---------------|---------------|---------------|---------------|---------------|---------------|
H--------------|---------------|---------------|---------------|---------------|---------------|---------------|
G----5h7---7---|-----5h7---7---|-----3h5---5---|---------------|---------------|-------------3-|---------------|
D---5---5------|----5---5------|----3---3------|-----3h5---5---|-----3h5---5---|-----3h5---5---|-----3h5---5---|
A-6------6-----|--0------0-----|--4------4-----|----3----------|----3----------|----3----------|----3----------|
E--------------|---------------|---------------|--4------4-----|--4------4-----|--4------4-----|--4------------|

Intro 2/2 + rest of the song

 Ebmaj7         Am11            C#maj7          Abmaj7/9
e--------------|---------------|---------------|---------------|---------------|---------------|---------------|
H--------------|---------------|---------------|---------------|---------------|---------------|---------------|
G----5h7---7---|-----5h7---7---|-----3h5---5---|-------------3-|---------------|-------------3-|---------------|
D---5---5------|----5---5------|----3---3------|-----3h5---5---|-----3h5---5---|-----3h5---5---|-----3h5---5---|
A-6------6-----|--0------0-----|--4------4-----|----3----------|----3----------|----3----------|----3----------|
E--------------|---------------|---------------|--4------4-----|--4------4-----|--4------4-----|--4------4-----|
Добавлено: 10.05.2016
Другие материалы по этой песне:
  • Аккорды и текст

Страница создана 10.05.2016
http://primanota.ru/hiatus-kaiyote/lung-chords.htm
Привет, Гость.
Предлагаем пройти революционный курс по гитаре.
Подарок от PrimaNota.Ru, забирай!