PrimaNota.ru - самый крупный в мире бесплатный архив песенных текстов, аккордов, табулатур и нот


Hiatus Kaiyote - Fingerprints - таба, видео

Регистрация Запомнить меня
Войти через:  Facebook Google Twitter Vk Yandex Mail.ru

Hiatus Kaiyote - Fingerprints - таба, видео

Печатать
Просмотров: 72
---------------------------------------
Hiatus Kaiyote - Fingerprints
from the 2015 album 'Choose Your Weapon'

Tabbed by Dabog701
Tuning: Standard
---------------------------------------

These may not be the exact guitar parts, but you can play along with this! :)

Part 1:

e|---------------------------------------------------------------------------|
B|---8---7---6-------4~--------------------4---------------------------------|
G|---8---7---6-------5~--------------------5---------------------------------|
D|--10---9--=8-------5~-------8--7--6------5---------------------------------|
A|---------------6-----------10--9--8---6------------------------------------|
E|---8---7---6-------4~-------8--7--6------4---------------------------------|


Other Variations you can play are as follows:

e|-----------------------------8h10--7h9--6h8--------------------------------|
B|--11---10--9-------4---------8-----7----6----------------------------------|
G|---8---7---6---8---4h5-------8-----7----6----------------------------------|
D|--10---9---8-------4h5-----------------------etc---------------------------|
A|---------------------------------------------------------------------------|
E|---8---7---6-------4-------------------------------------------------------|


Part 2:
I'm pretty sure the guitar doesn't move with the bass here , but again, here's something you can play:

e|---------------------------------------------------------------------------|
B|---------------4-----------------------------------------------------------|
G|---------------5--------------0--------------------------------------------|
D|---8--7--6-----5--------------1--------------------------------------------|
A|--10--9--8--6-------------3------------------------------------------------|
E|---8--7--6-----4----4--6------1--------------------------------------------|


Part 3:
After a few more rotations it moves to this:
e|---------------------------------------|
B|---4--4--------3~----------------------|
G|---5--5--------4~----------------------|
D|---5--5--------5~----------------------|
A|---------------3~----------------------|
E|---4--4---4----------------------------|


Part 4:
then into this:
e|-------------------------------------------------------------|
B|---8---7---6-------4~-----3~~-3----8--8---8------------------|
G|---8---7---6-------5~-----4~~-4----7--7---7------------------|
D|--10---9--=8-------5~-----5~~-5----8--8---8------------------|
A|---------------6----------3~~-3----6--6---6------------------|
E|---8---7---6-------4~----------------------------------------|


Part 5:
After a couple rounds more it builds to the last section ("The Phoenix she dies...")here's the chords:
e|------------------------------------1---------------------------------------|
B|---4-----3----------------------4---1---4---3--3---8--8----8--------------------|
G|---5-----4----------------------5---0---5---4--4---7--7----7--------------------|
D|---5-----5----------------------5---1---5---5--5---8--8----8--------------------|
A|---------3--ahlahlah-ahlahlah---------------3--3---6--6----6--------------------|
E|---4----------------------------4---1---4------------------------------------|


Part 6: ('With new wisdom she flies"...)
e|-------------------------------------------------------|
B|-----4-----4-----3----3---------3----------------------|
G|-----5-----5-----3----4---------4----------------------|
D|-----5-----3-----1----2---------5----------------------|
A|-----------------3----3---------3----------------------|
E|-----4-----------1-------------------------------------|



Again, none of this is 100% accurate, it's just what I could make out to play along with the track. 
I learned a few new chords too which is always nice :) Hope you enjoyed it!
Добавлено: 10.05.2016
Вам также может быть интересно:
Другие материалы по этой песне:
  • Аккорды и текст

Страница создана 10.05.2016
http://primanota.ru/hiatus-kaiyote/fingerprints-chords.htm
Привет, Гость.
Предлагаем пройти революционный курс по гитаре.
Подарок от PrimaNota.Ru, забирай!