PrimaNota.ru - самый крупный в мире бесплатный архив песенных текстов, аккордов, табулатур и нот


Hi Standard - Wait For The Sun - таба, видео

Регистрация Запомнить меня
Войти через:  Facebook Google Twitter Vk Yandex Mail.ru

Hi Standard - Wait For The Sun - таба, видео

Печатать
Просмотров: 55
Авторы: Hi-STANDARD

-------------------------------------------------------------------------------
			     Wait For The Sun - Hi-Standard
-------------------------------------------------------------------------------

Tabbed by:Ricardo Cricco
Email:rcricco@hotmail.com

Tuning:EADGBE

Intro
e|---------------------------------------------------------------------------|
B|---------------------------------------------------------------------------|
G|---------------------------------------------------------------------------|
D|---------------------------------------------------------------------------|
A|-7-------------------7--------------------7------------------7-------------|
E|-0-------------------0--------------------0------------------0-------------|
                            (Until drums come in)
          Riff A        
e|---------------------------------------|----------|
B|---------------------------------------|----------|
G|---------------------------------------|----------|
D|-6-------------------------------------|----6\----|
A|-7------6------7------6------4------6--|----7\----|
E|-0------7------9------7------5------7--|----0-----|
                        
Repeat Riff A

e|------------------------|-------------|
B|------------------------|-------------|
G|------------------------|-------------|
D|------------------------|-------------|
A|-------6---------7-7-7--|-2--6--9999--|
E|-0-0-0-4-0-0-0-0-5-5-5--|-0--4--7777--|

   -P.M-   --P.M--         -P.M-
     Repeat 2 more times

Verse
e|--------------------------|-------------------------------------------------|
B|--------------------------|-------------------------------------------------|
G|--------------------------|-------------------------------------------------|
D|--------------------------|-------------------------------------------------|
A|-------------7-7-7-7-7-7--|-------------7-7-7-8-8-8-9-9-9-7-7-7-6-6-6-6-6-6-|
E|-5-5-5-7-7-7--------------|-5-5-5-7-7-7-------------------------------------|

   ---------P.M-----------    -----------------------P.M---------------------
           Repeat

e|--------------------------|--------------------------|
B|--------------------------|--------------------------|
G|--------------------------|--------------------------|
D|--------------------------|--------------------------|
A|-------------7-7-7-7-7-7--|-------------4-4-4-4-4-4--|
E|-5-5-5-7-7-7--------------|-5-5-5-7-7-7--------------|

   ---------P.M-----------    ---------P.M-----------

           Riff B
e|----------------------------|
B|----------------------------|
G|----------------------------|
D|-------9--10-11----9--------|
A|-7--9--7--8--9--11-7------6-|
E|-5--7-----------9-----5h7---|

Chorus
e|--------------------------------|----------|
B|--------------------------------|----------|
G|--------------------------------|----------|
D|-9--8--6--4--2--4---------------|----------|
A|-7--6--4--2--0--2--2------------|-7--9--2--|
E|-------------------0-0-0-0-0-0--|-5--7--0--|

                     ----P.M----
            Repeat

Solo
e|-----------------------|-------------4-4-4\2p0-|-5-4p2h4p2p0-4-5-6-7~-9-9-9p7-
B|-----5-----7-5-5-5p4p0-|-----5-----7-----------|------------------------------
G|-2h4---4h6-------------|-2h4---4h6-------------|------------------------------
D|-----------------------|-----------------------|------------------------------
A|-----------------------|-----------------------|------------------------------
E|-----------------------|-----------------------|------------------------------

e|-6-7~-|-----------------|-------------|-5-4p2h4p2p0-----------------------9---
B|------|-----------------|-------------|-------------9-10-12-9-10-12-10-12---12
G|------|-6--8--9--11/13--|-6--8--11\9--|---------------------------------------
D|------|-----------------|-------------|---------------------------------------
A|------|-4--6--7--9/11---|-4--6--9\7---|---------------------------------------
E|------|-----------------|-------------|---------------------------------------

e|-9-11-12\-|
B|----------|
G|----------|
D|----------|
A|----------|
E|----------|

Verse
e|-------------|-------------------------|-------------|-------------|
B|-------------|-------------------------|-------------|-------------|
G|-------------|-------------------------|-------------|-------------|
D|-------------|-------------------4444--|----------2--|-------6666--|
A|-7--9--2222--|-7--9--2223--4--2--2222--|-7--9--2222--|-7--9--4444--|
E|-5--7--0000--|-5--7--0001--2--0--------|-5--7--0000--|-5--7--------|
     Repeat

Play Riff B

e|--------------------------------|----------------------|
B|--------------------------------|----------------------|
G|--------------------------------|----------------------|
D|-9--8--6--4--2--4---------------|-6--4--2--1--2--4--6--|
A|-7--6--4--2--0--2--2------------|-7--6--4--2--4--6--7--|
E|-------------------0-0-0-0-0-0--|----------------------|

                     ----P.M----
             Repeat

e|--------------------------------|----------|
B|--------------------------------|----------|
G|--------------------------------|----------|
D|-9--8--6--4--2--4---------------|----------|
A|-7--6--4--2--0--2--2------------|-7--9--2--|
E|-------------------0-0-0-0-0-0--|-5--7--0--|

                     ----P.M----

Bridge
e|----------------------------------|
B|----------------------------------|
G|-------4-------4-------4-------4--|
D|-------4-------4-------4-------4--|
A|-2-2-2---0-0-0--------------------|
E|-----------------4-4-4---2-2-2----|

   -P.M-   -P.M-   -P.M-   -P.M-
            Repeat 3 more times

e|--------------------------------------------|------------------------------|
B|--------------------------------------------|------------------------------|
G|--------------------------------------------|-4--6--8--6--8--11-13--11-9~~-|
D|-------------1----------------------1---1-2-|------------------------------|
A|-2-0-2-4-2-4---4-2-0----2-0-2-4-2-4---4-----|-2--4--6--4--6--9--11--9------|
E|--------------------------------------------|------------------------------|

e|------------------------|-------------------|
B|------------------------|-------------------|
G|------------------------|-------------------|
D|------------------------|-------------------|
A|-------6---------7-7-7--|-222-666-777-888-2-|
E|-0-0-0-4-0-0-0-0-5-5-5--|-000-444-555-666-0-|

   -P.M-   --P.M--          -----P.M-------
    Repeat 2 more times

e|--------------------------------|----------------------|
B|--------------------------------|----------------------|
G|--------------------------------|----------------------|
D|-9--8--6--4--2--4---------------|-6--4--2--1--2--4--6--|
A|-7--6--4--2--0--2--2------------|-7--6--4--2--4--6--7--|
E|-------------------0-0-0-0-0-0--|----------------------|

                     ----P.M----
             Repeat

e|--------------------------------|----------------------|
B|--------------------------------|----------------------|
G|--------------------------------|----------------------|
D|-9--8--6--4--2--4---------------|----------------------|
A|-7--6--4--2--0--2--2------------|-7--9--2--------------|
E|-------------------0-0-0-0-0-0--|-5--7--0--------------|

                     ----P.M----    Repeat 2 more times

e|---------------|
B|---------------|
G|---------------|
D|-----------6\--|
A|-4----6----7\--|
E|-5----7--------|

That's all. I couldn't find any tabs for this song so I worked it out. I think it
is pretty accurate, you'll need to listen to the CD for the timing. This is a
great song! !,,!_
Добавлено: 05.11.2013
Другие материалы по этой песне:
  • Аккорды и текст

Страница создана 05.11.2013
http://primanota.ru/hi-standard-2/wait-for-the-sun-chords.htm
Привет, Гость.
Предлагаем пройти революционный курс по гитаре.
Подарок от PrimaNota.Ru, забирай!