PrimaNota.ru - самый крупный в мире бесплатный архив песенных текстов, аккордов, табулатур и нот


Hi Standard - Stay Gold - таба, видео

Регистрация Запомнить меня
Войти через:  Facebook Google Twitter Vk Yandex Mail.ru

Hi Standard - Stay Gold - таба, видео

Печатать
Просмотров: 73
Авторы музыки: Hi-STANDARD
Авторы текста: 横山健, 難波章浩
Hi,

finally a tab for Hi Standard's "Stay Gold". There are several good YouTube-Covers to learn with...

Standard-Tuning


INTRO
e|-----------------------------------------------------|
B|-----------------------3---3---7---5--(5)--5---------|
G|---4-/-3-/-4---6---3---4---4---5---5---7---5---------|
D|---5-/-4-/-5---4---4---------------------------------|
A|-----------------------------------------------------|
E|-----------------------------------------------------|


e|-----------------------------------------------------|
B|-------------------------------8---7--(7)-(7)--------|
G|---4-/-3-/-4---6---9---7---7---7--(7)--9---7---------|
D|---5-/-4-/-5---7---7---7---7-------------------------|
A|-----------------------------------------------------|
E|-----------------------------------------------------|


e|-----------------------------------------------------|
B|-----------------------3---3---7---5--(5)--5---------|
G|---4-/-3-/-4---6---3---4---4---5---5---7---5---------|
D|---5-/-4-/-5---4---4---------------------------------|
A|-----------------------------------------------------|
E|-----------------------------------------------------|

e|-----------------------------------------------------|
B|-----------------------------------------------------|
G|---4-/-3-/-4---6---7--/9-----------------------------|
D|---5-/-4-/-5---7---7---------------------------------|
A|-----------------------------------------------------|
E|-----------------------------------------------------|


Verse

e|-----------------------------------------------------|
B|-----------------------------------------------------|
G|--7--------------------------------------------------|
D|--7---5--4--2----7--5--4----9--7--5---7--------------|
A|--5---5--4--2----7--5--4----9--7--5---7--------------|
E|------3--2--0----5--3--2----7--5--3---5--------------|

   (PM)      (PM)       (PM)       (PM)
e|-----------------------------------------------------|
B|-----------------------------------------------------|
G|--7--------------------------------------------------|
D|--7---5--4--2----7--5--4----9--7--5---7--------------|
A|--5---5--4--2----7--5--4----9--7--5---7--------------|
E|------3--2--0----5--3--2----7--5--3---5--------------|


Chorus

e|-----------------------------------------------------|
B|-----------------------------------------------------|
G|-----------4----7--------7---------------------------|
D|-----5--4--4----7--5--7--7---------------------------|
A|-----5--4--2----5--5--7--5---------------------------|
E|-----3--2----------3--5------------------------------|


e|-----------------------------------------------------|
B|-----------------------------------------------------|
G|-----------4----7------------------------------------|
D|-----5--4--4----7--5--7--9---------------------------|
A|-----5--4--2----5--5--7--9---------------------------|
E|-----3--2----------3--5--7---------------------------|


Bridge

e|-----------------------------------------------------|
B|-----------------------------------------------------|
G|--7---6--7--6--4--3--9--7--6--7--4--12--9--11--12----|
D|-----------------------------------------------------|
A|--5---4--5--4--2--1--7--5--4--5--2--10--7--9---10----|
E|-----------------------------------------------------|


e|-----------------------------------------------0------|
B|-----------------------------------------------0------|
G|-14-%-16--14--12--11--9--11--9--7--9--7--4--3--0------|
D|-----------------------------------------------0------|
A|-12-%-14--12--10--9---7--9---7--5--7--5--2--1--0------|<<
E|-----------------------------------------------0------|<<


e|-----------------------------------------------------|
B|-----------------------------------------------------|
G|--11--9--7--6----------------------------------------|
D|-----------------------------------------------------|
A|--9---7--5--4----------------------------------------|
E|-----------------------------------------------------|


e|-----------------------------------------------------|
B|-----------------------3---3---7---5--(5)--5---------|
G|---4-/-3-/-4---6---3---4---4---5---5---7---5---------|
D|---5-/-4-/-5---4---4---------------------------------|
A|-----------------------------------------------------|
E|-----------------------------------------------------|


e|-----------------------------------------------------|
B|-------------------------------8---7--(7)-(7)--------|
G|---4-/-3-/-4---6---9---7---7---7--(7)--9---7---------|
D|---5-/-4-/-5---7---7---7---7-------------------------|
A|-----------------------------------------------------|
E|-----------------------------------------------------|


e|-----------------------------------------------------|
B|-----------------------3---3---7---5--(5)--5---------|
G|---4-/-3-/-4---6---3---4---4---5---5---7---5---------|
D|---5-/-4-/-5---4---4---------------------------------|
A|-----------------------------------------------------|
E|-----------------------------------------------------|

e|-----------------------------------------------------|
B|-----------------------------------------------------|
G|---4-/-3-/-4---6-------------------------------------|
D|---5-/-4-/-5---7-------------------------------------|
A|-------------------<<--------------------------------|
E|-------------------<<--------------------------------|


Chorus

e|-----------------------------------------------------|
B|-----------------------------------------------------|
G|------------5---8--------8---------------------------|
D|-----6---5--5---8--6--8--8---------------------------|
A|-----6---5--3---6--6--8--6---------------------------|
E|-----4---3---------4--6------------------------------|

e|-----------------------------------------------------|
B|-----------------------------------------------------|
G|------------5---8--------8----8--7--5--3-------------|
D|-----6---5--5---8--6--8--8----8--7--5--3-------------|
A|-----6---5--3---6--6--8--6----6--5--3--1-------------|
E|-----4---3---------4--6------------------------------|

e|-----------------------------------------------------|
B|-----------------------------------------------------|
G|------------5---8--------8---------------------------|
D|-----6---5--5---8--6--8--8---------------------------|
A|-----6---5--3---6--6--8--6---------------------------|
E|-----4---3---------4--6------------------------------|

e|-----------------------------------------------------|
B|-----------------------------------------------------|
G|------------5---8------------------------------------|
D|-----6---5--5---8--6--8--9--11-----------------------|
A|-----6---5--3---6--6--8--9--11-----------------------|
E|-----4---3---------4--6--7--9------------------------|

e|-----------------------------------------------------|
B|-----------------------------------------------------|
G|----------8---5--------------------------------------|
D|------5-8---5---8-6-5~~~<----------------------------|
A|----6------------------------------------------------|
E|-----------------------------------------------------|


Have fun with this rockin' song...

Tabbed by Gaggson
Добавлено: 19.09.2013
Другие материалы по этой песне:
  • Аккорды и текст

Страница создана 19.09.2013
http://primanota.ru/hi-standard-2/stay-gold-chords.htm
Привет, Гость.
Предлагаем пройти революционный курс по гитаре.
Подарок от PrimaNota.Ru, забирай!