PrimaNota.ru - самый крупный в мире бесплатный архив песенных текстов, аккордов, табулатур и нот


Hi Standard - Angry Fists Angry Soul - таба, видео

Регистрация Запомнить меня
Войти через:  Facebook Google Twitter Vk Yandex Mail.ru

Hi Standard - Angry Fists Angry Soul - таба, видео

Печатать
Просмотров: 65
From: Stash Fortier 
Subject: TAB: Angry Fists, Angry Soul by HI-STANDARD

-----------------------------------------------------------------------
                        Angry Fists, Angry Soul by HI-STANDARD
-----------------------------------------------------------------------

By:Stash Fortier(stash@nt.net)

INTRO
e|--------------------------------------------------------------------|
B|--------------------------------------------------------------------|
G|------------------------7--9----------------------------------------|
D|-7---7-7---7-7-7---7-7--7--9---x4-----------------------------------|
A|-7---7-7---7-7-7---7-7--5--7----------------------------------------|
E|-5---5-5---5-5-5---5-5----------------------------------------------|

VERSE
e|--------------------------------------------------------------------|
B|--------------------------------------------------------------------|
G|----------7-7-7-7--9-9-9-9-----------------7/9--9--------7-9-9-12-14|
D|-7-7-7-7--7-7-7-7--9-9-9-9--7-7-7-7-x2--7--7/9--9--7--7--7-9-9-12-14|
A|-7-7-7-7--5-5-5-5--7-7-7-7--7-7-7-7-----7--5/7--7--7--7--5/7-7-10-12|
E|-5-5-5-5--------------------5-5-5-5-----5----------5--5-------------|
   PM................................

PRE-CHORUS
e|--------------------------------------------------------------------|
B|--------------------------------------------------------------------|
G|-----------7---------9----------------------------------------------|
D|-7---------7--0-5-7--9--0-7-9----7-6-7------------------------------|
A|-7--0-5-7--5---------7-----------7-6-7------------------------------|
E|-5-------------------------------5-4-5------------------------------|
      PM...     PM...     PM....

CHORUS
e|--------------------------------------------------------------------|
B|--------------------------------------------------------------------|
G|-7-7-7-7-----------9-9-9-9------------------------------------------|
D|-7-7-7-7--7-7-7-7--9-9-9-9--7-7-7-7-x2--REPEAT 2X WITH PALM MUTE----|
A|-5-5-5-5--7-7-7-7--7-7-7-7--7-7-7-7-----ON LAST 3 CHORDS-OF --------|
E|----------5-5-5-5-----------5-5-5-5-------EACH CHORD GROUP----------|

e|--------------------------------------------------------------------|
B|--------------------------------------------------------------------|
G|--------------------------------------------------------------------|
D|-------------x4--YOU CAN USE POWER CHORDS HERE TOO------------------|
A|--------------------------------------------------------------------|
E|-5--4--2--1---------------------------------------------------------|

SOLO some of this may be slightly off
e|-------------------------------------------12-----------------------|
B|-10-9-7--------7--10--9----7-10--9---9-10------10---10--9--7--------|
G|---------9--7------------7------------------------------------9--7--|
D|--------------------------------------------------------------------|
A|--------------------------------------------------------------------|
E|--------------------------------------------------------------------|

e|--------------------------------------------------------------------|
B|-7--10-9----7--10-9-10--10-9-7-----------7--10-9--10----10--9--7----|
G|----------7--------------------9------7-----------------------------|
D|--------------------------------------------------------------------|
A|--------------------------------------------------------------------|
E|--------------------------------------------------------------------|

e|------------------------12-------|----------------------------------|
B|-------7-10-9---9-10-12----12--10|-10--9--7----------7-9------------|
G|-9--7----------------------------|-----------9--7--9----------------|
D|---------------------------------|------------------------x2--------|
A|---------------------------------|----------------------------------|
E|---------------------------------|----------------------------------|

e|--------------------------------------------------------------------|
B|-12--11-9------------9--11-----10--9--7---------7-9-----------------|
G|----------11--9--11--------x2------------9-7-9------x2--------------|
D|--------------------------------------------------------------------|
A|--------------------------------------------------------------------|
E|--------------------------------------------------------------------|

e|--------------------------------------------------------------------|
B|-12--11-9------------9--11---12--11--9------------------------------|
G|----------11--9--11---------------------11--9-----------------------|
D|--------------------------------------------------------------------|
A|--------------------------------------------------------------------|
E|--------------------------------------------------------------------|

BRIDGE
e|--------------------------------------------------------------------|
B|--------------------------------------------------------------------|
G|--------------------------------------------------------------------|
D|-2-----2-----2------------------------------------------------------|
A|-2-----2-----2------------------------------------------------------|
E|-0-----0-----0------------------------------------------------------|

REPEAT PRE-CHORUS ONCE
REPEAT CHORUS


e|--------------------------------------------------------------------|
B|--------------------------------------------------------------------|
G|--------------------------------------------------------------------|
D|-7------------------------------------------------------------------|
A|-7------------------------------------------------------------------|
E|-5------------------------------------------------------------------|

REPEAT CHORUS WITHOUT PALM MUTE
REPEAT INTRO ONLY ONCE
END ON A POWER CHORD

LYRICS

Go boys
Go now
Go fight now

VERSE
Smiling faces, crying minds
Safe way to live in this world
That's OK, a nice idea
I love me, I can say NO

CHORUS
Fighting fists, angry soul
Never lose my fighting fists
Me dear punks, angry boys
Never lose your fighting fists

VERSE
City lights and speeding traffic
Concrete wild is this world
You are natives, don't be tourists
If you dont fight, the prey is you

CHORUS
Fighting fists, angry soul
Never lose my fighting fists
My dear punks, angry boys
Never lose your fighting fists

Go boys
Go now
Go Right now

Never lose my fighting fists
Never lose your fighting fists

stash@nt.net for comments/questions
=====================================================================
Добавлено: 29.06.2013
Другие материалы по этой песне:
  • Аккорды и текст

Страница создана 29.06.2013
http://primanota.ru/hi-standard-2/angry-fists-angry-soul-chords.htm
Привет, Гость.
Предлагаем пройти революционный курс по гитаре.
Подарок от PrimaNota.Ru, забирай!