PrimaNota.ru - самый крупный в мире бесплатный архив песенных текстов, аккордов, табулатур и нот


The Heydaze - Stay High Habits - таба, видео

Регистрация Запомнить меня
Войти через:  Facebook Google Twitter Vk Yandex Mail.ru

The Heydaze - Stay High Habits - таба, видео

Печатать
Просмотров: 48
Intro & Verse
e|------------------------------------------------------------------------------|
B|------------------------------------------------------------------------------|
G|----3---3---3---3---3-------6---6---6---6---------10---10--10-10--10--10------|
D|----4---4---4---4---4-------8---8---8---8---------11---11--11-11--11--11------| x5 (1 for intro, 4 for verse)
A|------------------------------------------------------------------------------|
E|---2---2---2---2---2-------6---6---6---6---------9---9---9---9---9---9--------|

Chorus
e|-------------------------------------------------------------------------------------|
B|-------------------------------------------------------------------------------------|
G|---3--3--3--3--3--3--3--3------6--6--6--6--6--6--6--6-----10-10-10-10-10-10-10-10----|
D|---4--4--4--4--4--4--4--4------8--8--8--8--8--8--8--8-----11-11-11-11-11-11-11-11----|
A|---4--4--4--4--4--4--4--4------8--8--8--8--8--8--8--8-----11-11-11-11-11-11-11-11----|
E|---2--2--2--2--2--2--2--2------6--6--6--6--6--6--6--6-----9--9--9--9--9--9--9--9-----|
Добавлено: 20.06.2016
Другие материалы по этой песне:
  • Аккорды и текст

Страница создана 20.06.2016
http://primanota.ru/heydaze/stay-high-habits-chords.htm
Привет, Гость.
Предлагаем пройти революционный курс по гитаре.
Подарок от PrimaNota.Ru, забирай!