PrimaNota.ru - самый крупный в мире бесплатный архив песенных текстов, аккордов, табулатур и нот


Hey - Moja I Twoja Nadzieja - текст песни, таба, видео

Регистрация Запомнить меня
Войти через:  Facebook Google Twitter Vk Yandex Mail.ru

Hey - Moja I Twoja Nadzieja - текст песни, таба, видео

Печатать
Просмотров: 164
AUTHOR:        HEY
TITLE:         MOJA I TWOJA NADZIEJA (ACOUSTIC)
TRANSCRIPTION: PATRYK "PAZI" MAZUREK
E-MAIL:        pazee@poczta.fm
COMMENTS:      APPRECIATED  :)))
KIND OF TAB:   GUITAR TAB


E||-------------------|---------------------|--------------------0-----|
B||--5----------------|---------------0-----|-----0-----------------3--|
G||--5----------------|------------------5--|--------4--------2--------|
D||--7----------------|----------7----------|--5--------5--3-----------|
A||--0----------------|----------0----------|--0-----------0-----------|
E||--0----------------|---------------------|--------------------------|

E|-----0-------------------|--------------------0-----|-----0-------------------|
B|--------3----------0-----|-----0-----------------3--|--------3----------0-----|
G|--2--------2----------5--|--------4--------2--------|--2--------2----------5--|
D|--------------7----------|--5--------5--3-----------|--------------7----------|
A|--------------0----------|--0-----------0-----------|--------------0----------|
E|-------------------------|--------------------------|-------------------------|

E|--------------------0-----|-----0-------------------|--------------------0-----|
B|-----0-----------------3--|--------3----------0-----|-----0-----------------3--|
G|--------4--------2--------|--2--------2----------5--|--------4--------2--------|
D|--5--------5--3-----------|--------------7----------|--5--------5--3-----------|
A|--0-----------0-----------|--------------0----------|--0-----------0-----------|
E|--------------------------|-------------------------|--------------------------|

E|-----0-------------------|--------------------0-----|-----0-------------------|
B|--------3----------0-----|-----0-----------------3--|--------3----------0-----|
G|--2--------2----------5--|--------4--------2--------|--2--------2----------5--|
D|--------------7----------|--5--------5--3-----------|--------------7----------|
A|--------------0----------|--0-----------0-----------|--------------0----------|
E|-------------------------|--------------------------|-------------------------|

E|--------------------0-----|-----0-------------------|--------------------0-----|
B|-----0-----------------3--|--------3----------0-----|-----0-----------------3--|
G|--------4--------2--------|--2--------2----------5--|--------4--------2--------|
D|--5--------5--3-----------|--------------7----------|--5--------5--3-----------|
A|--0-----------0-----------|--------------0----------|--0-----------0-----------|
E|--------------------------|-------------------------|--------------------------|

E|-----0-------------------|--------------------0-----|-----0-------------------|
B|--------3----------0-----|-----0-----------------3--|--------3----------0-----|
G|--2--------2----------5--|--------4--------2--------|--2--------2----------5--|
D|--------------7----------|--5--------5--3-----------|--------------7----------|
A|--------------0----------|--0-----------0-----------|--------------0----------|
E|-------------------------|--------------------------|-------------------------|

E|--------------------0-----|-----0-------------------|--------------------0-----|
B|-----0-----------------3--|--------3----------0-----|-----0-----------------3--|
G|--------4--------2--------|--2--------2----------5--|--------4--------2--------|
D|--5--------5--3-----------|--------------7----------|--5--------5--3-----------|
A|--0-----------0-----------|--------------0----------|--0-----------0-----------|
E|--------------------------|-------------------------|--------------------------|

E|-----0-------------------|--------------------0-----|-----0-------------------|
B|--------3----------0-----|-----0-----------------3--|--------3----------0-----|
G|--2--------2----------5--|--------4--------2--------|--2--------2----------5--|
D|--------------7----------|--5--------5--3-----------|--------------7----------|
A|--------------0----------|--0-----------0-----------|--------------0----------|
E|-------------------------|--------------------------|-------------------------|

E|--------------------0-----|-----0-------------------|--------------------0-----|
B|-----0-----------------3--|--------3----------0-----|-----0-----------------3--|
G|--------4--------2--------|--2--------2----------5--|--------4--------2--------|
D|--5--------5--3-----------|--------------7----------|--5--------5--3-----------|
A|--0-----------0-----------|--------------0----------|--0-----------0-----------|
E|--------------------------|-------------------------|--------------------------|

E|-----0-------------------|--------------------0-----|-----0-------------------|
B|--------3----------0-----|-----0-----------------3--|--------3----------0-----|
G|--2--------2----------5--|--------4--------2--------|--2--------2----------5--|
D|--------------7----------|--5--------5--3-----------|--------------7----------|
A|--------------0----------|--0-----------0-----------|--------------0----------|
E|-------------------------|--------------------------|-------------------------|

E|--------------------0-----|-----0-------------------|--------------------0-----|
B|-----0-----------------3--|--------3----------0-----|-----0-----------------3--|
G|--------4--------2--------|--2--------2----------5--|--------4--------2--------|
D|--5--------5--3-----------|--------------7----------|--5--------5--3-----------|
A|--0-----------0-----------|--------------0----------|--0-----------0-----------|
E|--------------------------|-------------------------|--------------------------|

E|-----0-------------------|--------------------0-----|-----0-------------------|
B|--------3----------0-----|-----0-----------------3--|--------3----------0-----|
G|--2--------2----------5--|--------4--------2--------|--2--------2----------5--|
D|--------------7----------|--5--------5--3-----------|--------------7----------|
A|--------------0----------|--0-----------0-----------|--------------0----------|
E|-------------------------|--------------------------|-------------------------|

E|--------------------0-----|-----0-------------------|--------------------0-----|
B|-----0-----------------3--|--------3----------0-----|-----0-----------------3--|
G|--------4--------2--------|--2--------2----------5--|--------4--------2--------|
D|--5--------5--3-----------|--------------7----------|--5--------5--3-----------|
A|--0-----------0-----------|--------------0----------|--0-----------0-----------|
E|--------------------------|-------------------------|--------------------------|

E|-----0-------------------|--------------------0-----|-----0-------------------|
B|--------3----------0-----|-----0-----------------3--|--------3----------0-----|
G|--2--------2----------5--|--------4--------2--------|--2--------2----------5--|
D|--------------7----------|--5--------5--3-----------|--------------7----------|
A|--------------0----------|--0-----------0-----------|--------------0----------|
E|-------------------------|--------------------------|-------------------------|

E|--------------------0-----|-----0-------------------|--------------------0-----|
B|-----0-----------------3--|--------3----------0-----|-----0-----------------3--|
G|--------4--------2--------|--2--------2----------5--|--------4--------2--------|
D|--5--------5--3-----------|--------------7----------|--5--------5--3-----------|
A|--0-----------0-----------|--------------0----------|--0-----------0-----------|
E|--------------------------|-------------------------|--------------------------|

E|-----0-------------------|--------------------0-----|-----0-------------------|
B|--------3----------0-----|-----0-----------------3--|--------3----------0-----|
G|--2--------2----------5--|--------4--------2--------|--2--------2----------5--|
D|--------------7----------|--5--------5--3-----------|--------------7----------|
A|--------------0----------|--0-----------0-----------|--------------0----------|
E|-------------------------|--------------------------|-------------------------|

E|--------------------0-----|-----0-------------------|--------------------------|
B|-----0-----------------3--|--------3-----0----0--0--|--0--0--0--0--0--0--0--0--|
G|--------4--------2--------|--2--------2--1----1--1--|--1--1--1--1--1--1--1--1--|
D|--5--------5--3-----------|--------------2----2--2--|--2--2--2--2--2--2--2--2--|
A|--0-----------0-----------|--------------2----2--2--|--2--2--2--2--2--2--2--2--|
E|--------------------------|--------------0----0--0--|--0--0--0--0--0--0--0--0--|

E|-------------------------|-------------------------|-------------------------|
B|--0--0--0--0-------------|-------------------------|-------------------------|
G|--1--1--1--1--5----5--x--|--x--4--x--x--2----2--x--|--x--4--x--x--5----5--x--|
D|--2--2--2--2--7----7--x--|--x--5--x--x--3----3--x--|--x--5--x--x--7----7--x--|
A|--2--2--2--2--7----7--x--|--x--5--x--x--3----3--x--|--x--5--x--x--7----7--x--|
E|--0--0--0--0--5----5--x--|--x--3--x--x--1----1--x--|--x--3--x--x--5----5--x--|

E|-------------------------|-------------------------|-------------------------|
B|-------------------------|-------------------------|-------------------------|
G|--x--4--x--x--2----2--x--|--x--4--x--x--5----5--x--|--x--4--x--x--2----2--x--|
D|--x--5--x--x--3----3--x--|--x--5--x--x--7----7--x--|--x--5--x--x--3----3--x--|
A|--x--5--x--x--3----3--x--|--x--5--x--x--7----7--x--|--x--5--x--x--3----3--x--|
E|--x--3--x--x--1----1--x--|--x--3--x--x--5----5--x--|--x--3--x--x--1----1--x--|

E|-------------------------|-------------------------|-------------------------|
B|-------------------------|-------------------------|-------------------------|
G|--x--4--x--x--5----5--x--|--x--4--x--x--2----2--x--|--x--4--x--x--5----5--x--|
D|--x--5--x--x--7----7--x--|--x--5--x--x--3----3--x--|--x--5--x--x--7----7--x--|
A|--x--5--x--x--7----7--x--|--x--5--x--x--3----3--x--|--x--5--x--x--7----7--x--|
E|--x--3--x--x--5----5--x--|--x--3--x--x--1----1--x--|--x--3--x--x--5----5--x--|

E|-------------------------|-------------------------|-------------------------|
B|-------------------------|-------------------------|-------------------------|
G|--x--4--x--x--2----2--x--|--x--4--x--x--5----5--x--|--x--4--x--x--2----2--x--|
D|--x--5--x--x--3----3--x--|--x--5--x--x--7----7--x--|--x--5--x--x--3----3--x--|
A|--x--5--x--x--3----3--x--|--x--5--x--x--7----7--x--|--x--5--x--x--3----3--x--|
E|--x--3--x--x--1----1--x--|--x--3--x--x--5----5--x--|--x--3--x--x--1----1--x--|

E|-------------------------|-------------------------|-------------------------|
B|-------------------------|-------------------------|-------------------------|
G|--x--4--x--x--5----5--x--|--x--4--x--x--2----2--x--|--x--4--x--x--5----5--x--|
D|--x--5--x--x--7----7--x--|--x--5--x--x--3----3--x--|--x--5--x--x--7----7--x--|
A|--x--5--x--x--7----7--x--|--x--5--x--x--3----3--x--|--x--5--x--x--7----7--x--|
E|--x--3--x--x--5----5--x--|--x--3--x--x--1----1--x--|--x--3--x--x--5----5--x--|

E|-------------------------|-------------------------|--------------------------|
B|-------------------------|--------------0----0--0--|--0--0--0--0--0--0--0--0--|
G|--x--4--x--x--2----2--x--|--x--4--x--x--1----1--1--|--1--1--1--1--1--1--1--1--|
D|--x--5--x--x--3----3--x--|--x--5--x--x--2----2--2--|--2--2--2--2--2--2--2--2--|
A|--x--5--x--x--3----3--x--|--x--5--x--x--2----2--2--|--2--2--2--2--2--2--2--2--|
E|--x--3--x--x--1----1--x--|--x--3--x--x--0----0--0--|--0--0--0--0--0--0--0--0--|

E|--------------------------|---------------------------|---------------------------|
B|--0--0--0--0--------------|---------------------------|---------------------------|
G|--1--1--1--1--5----5--x-x-|--x-x-4--4--x--2----2--x-x-|--x-x-4--4--x--5----5--x-x-|
D|--2--2--2--2--7----7--x-x-|--x-x-5--5--x--3----3--x-x-|--x-x-5--5--x--7----7--x-x-|
A|--2--2--2--2--7----7--x-x-|--x-x-5--5--x--3----3--x-x-|--x-x-5--5--x--7----7--x-x-|
E|--0--0--0--0--5----5--x-x-|--x-x-3--3--x--1----1--x-x-|--x-x-3--3--x--5----5--x-x-|

E|---------------------------|---------------------------|---------------------------|
B|---------------------------|---------------------------|---------------------------|
G|--x-x-4--4--x--2----2--x-x-|--x-x-4--4--x--5----5--x-x-|--x-x-4--4--x--2----2--x-x-|
D|--x-x-5--5--x--3----3--x-x-|--x-x-5--5--x--7----7--x-x-|--x-x-5--5--x--3----3--x-x-|
A|--x-x-5--5--x--3----3--x-x-|--x-x-5--5--x--7----7--x-x-|--x-x-5--5--x--3----3--x-x-|
E|--x-x-3--3--x--1----1--x-x-|--x-x-3--3--x--5----5--x-x-|--x-x-3--3--x--1----1--x-x-|

E|---------------------------|---------------------------|---------------------------|
B|---------------------------|---------------------------|---------------------------|
G|--x-x-4--4--x--5----5--x-x-|--x-x-4--4--x--2----2--x-x-|--x-x-4--4--x--5----5--x-x-|
D|--x-x-5--5--x--7----7--x-x-|--x-x-5--5--x--3----3--x-x-|--x-x-5--5--x--7----7--x-x-|
A|--x-x-5--5--x--7----7--x-x-|--x-x-5--5--x--3----3--x-x-|--x-x-5--5--x--7----7--x-x-|
E|--x-x-3--3--x--5----5--x-x-|--x-x-3--3--x--1----1--x-x-|--x-x-3--3--x--5----5--x-x-|

E|---------------------------|---------------------------|---------------------------|
B|---------------------------|---------------------------|---------------------------|
G|--x-x-4--4--x--2----2--x-x-|--x-x-4--4--x--5----5--x-x-|--x-x-4--4--x--2----2--x-x-|
D|--x-x-5--5--x--3----3--x-x-|--x-x-5--5--x--7----7--x-x-|--x-x-5--5--x--3----3--x-x-|
A|--x-x-5--5--x--3----3--x-x-|--x-x-5--5--x--7----7--x-x-|--x-x-5--5--x--3----3--x-x-|
E|--x-x-3--3--x--1----1--x-x-|--x-x-3--3--x--5----5--x-x-|--x-x-3--3--x--1----1--x-x-|

E|---------------------------|---------------------------|---------------------------|
B|---------------------------|---------------------------|---------------------------|
G|--x-x-4--4--x--5----5--x-x-|--x-x-4--4--x--2----2--x-x-|--x-x-4--4--x--5----5--x-x-|
D|--x-x-5--5--x--7----7--x-x-|--x-x-5--5--x--3----3--x-x-|--x-x-5--5--x--7----7--x-x-|
A|--x-x-5--5--x--7----7--x-x-|--x-x-5--5--x--3----3--x-x-|--x-x-5--5--x--7----7--x-x-|
E|--x-x-3--3--x--5----5--x-x-|--x-x-3--3--x--1----1--x-x-|--x-x-3--3--x--5----5--x-x-|

E|---------------------------|------------------------|------------------|--||
B|---------------------------|---------------0--------|------------------|--||
G|--x-x-4--4--x--2----2--x-x-|--x-x-4--4--x--5--------|------------------|--||
D|--x-x-5--5--x--3----3--x-x-|--x-x-5--5--x--7--------|------------------|--||
A|--x-x-5--5--x--3----3--x-x-|--x-x-5--5--x--0--------|------------------|--||
E|--x-x-3--3--x--1----1--x-x-|--x-x-3--3--x--0--------|------------------|--||


CHORDS:

     a   aadd9  Gadd9   dadd9    a    G    F   aadd9
E||-----|----------------0----|--5----3----1-|-------||
B||--5--|--0------0------3----|--5----3----1-|---0---||
G||--5--|--5------4------2----|--5----4----2-|---5---||
D||--7--|--7------5------3----|--7----5----3-|---7---||
A||--0--|--0------0------0----|--7----5----3-|---0---||
E||--0--|---------------------|--5----3----1-|---0---||
Добавлено: 29.04.2012
Другие материалы по этой песне:

Страница создана 29.04.2012
http://primanota.ru/hey/moja-i-twoja-nadzieja-chords.htm
Привет, Гость.
Предлагаем пройти революционный курс по гитаре.
Подарок от PrimaNota.Ru, забирай!