PrimaNota.ru - самый крупный в мире бесплатный архив песенных текстов, аккордов, табулатур и нот


Hey - Misie - текст песни, таба, видео

Регистрация Запомнить меня
Войти через:  Facebook Google Twitter Vk Yandex Mail.ru

Hey - Misie - текст песни, таба, видео

Печатать
Просмотров: 138
-------------------------------------------------------------------------------
                             Hey - Misie
-------------------------------------------------------------------------------
Tabbed by: Sebastian "Splash" O
Email: splash1@wp.pl

Tuning: standard

This is a rhythm guitar tab.
I think it's correct, but mail me if you'll find some mistakes.
Listen for timing.

Intro
e|-------------------------------------|
B|-------------------------------------|
G|-------------------------------------|
D|-3/5---3-----------------------------|
A|-----------3/5/3---5-5/8-------------|
E|-----3-----------3-------------------|

Verse
e|--------------------------------------------|
B|--------------------------------------------|
G|--------------------------------------------|
D|--------------------6-7-7-------------------|
A|--8/3-5-5----5/8/5--4-5-5-------------------|
E|--6/3-3-3----3/6/3--------------------------|

Chorus
e|-------------------------|----------------------------------|
B|-------------------------|----------------------------------|
G|-------------------------|----------------------------------|
D|--8-8-8--7--5-5-5--------|----------------------------------|
A|--6-6-6--5--3-3-3--8--5--|--------4-5-5-------------4-5-5---|
E|-------------------6--3--|--3-6-3--------6-3--3-6-3---------|

Bridge
e|------------------------------------------------|
B|------------------------------------------------|
G|------------------------------------------------|
D|------------------------------3h5p3-------3h5---|
A|--------4-5-5-------------4-5-------5-3-5-------|
E|--3-6-3--------6-3--3-6-3-----------------------|

Verse #2
e|---------------------------------|
B|---------------------------------|
G|---------------------------------|
D|-3/5---3-------------------------|
A|-----------3/5/3---5-5/8---------|
E|-----3-----------3---------------|


Verse #3
e|---------------------------------------------------------------|
B|---------------------------------------------------------------|
G|-------4h5p4h5p4hp5p4------------------------------------------|
D|-3/5-----------------------------------------------------------|
A|----------------------3/5/3---5-5/8----------------------------|
E|-----3----------------------3----------------------------------|



Intro - 16x
Verse - 8x
Chorus - 2x
Bridge - 1x
Verse #2 - 4x
Verse #3 - 8x
Verse - 8x
Chorus - 2x
Solo with bass
Verse - 2x
Chorus - 2x

| /  slide up
| \  slide down
| h  hammer-on
| p  pull-off
| ~  vibrato
| +  harmonic
| x  Mute note
===============================================================================
Добавлено: 14.03.2012
Другие материалы по этой песне:
  • Аккорды и текст

Страница создана 14.03.2012
http://primanota.ru/hey/misie-chords.htm
Привет, Гость.
Предлагаем пройти революционный курс по гитаре.
Подарок от PrimaNota.Ru, забирай!