PrimaNota.ru - самый крупный в мире бесплатный архив песенных текстов, аккордов, табулатур и нот


Hey Violet - Im There - аккорды и текст, видео

Регистрация Запомнить меня
Войти через:  Facebook Google Twitter Vk Yandex Mail.ru

Hey Violet - Im There - аккорды и текст, видео

Печатать
Просмотров: 179
Уроки эстрадного вокала в Санкт-Петербурге
Im There
Hey Violet
SONG:   I'M THERE
ARTIST: HEY VIOLET
TAB BY: DON CZARSKI
EMAIL:  GUITARZAN7@HOTMAIL.COM


               I'M THERE
               HEY VIOLET

INTRO:
      D      F#m      Em       D
E ----------------------------------------
B ----------------------------------------
G ----------------------------------------
D ----------------------------------------
A --2/5-5--5/9-9-9--9\7-7-7--7/12-12-12---
E ----------------------------------------

VERSE:
D
I must say

I'm never like this
                      
I'll break it down so you don't miss
Bm
My point is that you got something
                              G
I've been hoping and looking for
   D         Em 
A real long time
    G                  D   
So I'm not gonna waste it

      D      F#m      Em       D
E ----------------------------------------
B ----------------------------------------
G ----------------------------------------
D ----------------------------------------
A --2/5-5--5/9-9-9--9\7-7-7--7/12-12-12---
E ----------------------------------------


VERSE:
D
In between the heart and mine

So much lost in so little time
Bm
I know the word can be spoken
                                 G
And then the world can be opened up
      D      Em
And faith reborn 
    G                    D   
And no we'll never waste it

      D      E        F#m       D
E ----------------------------------------
B ----------------------------------------
G ----------------------------------------
D ----------------------------------------
A --2/5-5--5/7-7-7--7\9-9-9--9/12-12-12---
E ----------------------------------------



CHORUS:
D      G                   Bm
So if you don't wanna be alone
    A                      F#m
And I just want a heart to call my own
 G                        D 
You just have to say the word
          A
And I'm there
     F#m 
I'm there

     G                    Bm
'Cus no-one wants to be alone
     A
And feelings like this
            F#m
They need a home
 G                        D
You just have to say the word
         A
And I'm there
     F#m  D   
I'm theeeere


    D   F#m  Em    A
E ------------------------
B ------------------------
G --7~--11~--9~--9/14~----
D ------------------------
A ------------------------
E ------------------------



VERSE:
 D
Stand still,

Don't give me a sigh

I'd love to think

I'm yours and you're mine
 Bm
I'll be wherever I'm needed

Wanted
   
Or even deleted
  G
Blind
    D          Em
Or all things clear
   G             D  F#m
However you want it


CHORUS:
       G                   Bm
So if you don't wanna be alone
    A                      F#m
And I just want a heart to call my own
 G                        D
You just have to say the word
          A
And I'm there
     F#m
I'm there

     G                    Bm
'Cus no-one wants to be alone
     A
And feelings like this
     F#m
They need a home
 G                        D
You just have to say the word
          A
And I'm there
     F#m D   
I'm theeere

    D   F#m  Em    A
E ------------------------
B ------------------------
G --7~--11~--9~--9/14~----
D ------------------------
A ------------------------
E ------------------------

    D   F#m  Em    A
E ------------------------
B ------------------------
G --7~--11~--9~--9/14~----
D ------------------------
A ------------------------
E ------------------------


BREAK:
A      D
We can go

We can stay
        A
We can kill yesterday
        Bm
We can laugh

We can cry
        D      
We can live, never die
     D
Separate or unite
         A
Let our souls just collide
     Bm
Give in
     D
Give in


BREAK:
D      G
We can go
        
We can stay
        D
We can kill yesterday
        Bm
We can laugh

We can cry
        D
We can live, never die
     D         
Separate or unite
          A
Let our souls just collide
     Bm
Give in  (Give in)     
     D
Give in  (Give in)

     
CHORUS:
       G                   Bm
So if you don't wanna be alone
    A                      F#m
And I just want a heart to call my own
 G                        D
You just have to say the word
          A
And I'm there
     F#m
I'm there

     G                    Bm
'Cus no-one wants to be alone
     A
And feelings like this
     F#m
They need a home
 G                        D
You just have to say the word
          A
And I'm there
     F#m D    
I'm theeere

    D   F#m  Em    A
E ------------------------
B ------------------------
G --7~--11~--9~--9/14~----
D ------------------------
A ------------------------
E ------------------------


OUTRO:

(PLAYED THROUGHOUT THE OUTRO)
    D   F#m  Em    A
E ------------------------
B ------------------------
G --7~--11~--9~--9/14~----
D ------------------------
A ------------------------
E ------------------------

  D
Breathing out
     F#m
And breathing in
     Em             A
The pieces of where we begin

  D
Whisper truth
    F#m
Or drown it out
       Em
We'll build it up
     A
Or break it down

  D
Breathing out
     F#m
And breathing in
     Em             A
The pieces of where we begin

  D
Whisper truth
    F#m
Or drown it out
       Em
We'll build it up
     A
Or break it down, heeeehhhh

Добавлено: 13.10.2015
Другие материалы по этой песне:
  • Аккорды и текст

Страница создана 13.10.2015
http://primanota.ru/hey-violet/im-there-chords.htm
Привет, Гость.
Предлагаем пройти революционный курс по гитаре.
Подарок от PrimaNota.Ru, забирай!