PrimaNota.ru - самый крупный в мире бесплатный архив песенных текстов, аккордов, табулатур и нот


Hey Rosetta - Tired Eyes - таба, видео

Регистрация Запомнить меня
Войти через:  Facebook Google Twitter Vk Yandex Mail.ru

Hey Rosetta - Tired Eyes - таба, видео

Печатать
Просмотров: 106
Уроки эстрадного вокала в Санкт-Петербурге
Fm  C


          F                                      C               F
	i raised my head from the riverbed and i tasted the air
          F                                    C                          F
	i built my home of oak and stone and i feasted on the animals and earth
          F                                   C                          F
	i raised my kids in modern beds and i taught them to take what's theirs
          F                                    Am          C            F
	i built this town on god and doubt and science (an economy of fear)
          F                                         Am              C           F
	i drained the pond and the woods beyond for dinner, and the river for a song
            F                                  Am              C      F
	the more i've got the more i want. i'm blinded…but i'm waking up!



Guitar Interlude


This isnt quite right but its all that i could pick out.


E|--------------------------------------------------------------------------|
B|--------------------------------------------------------------------------|
G|-----------2-----------2-----------4-----------4-----------4-----------4--|
D|-----3---3---3---3---3---3---3---3---5---5---5---5---5---5---5---5---5----|
A|---5---5-------5---5-------5---5-------5---5-------5---5-------7---7------|
E|--------------------------------------------------------------------------|

E|--------------------------------------------------------------------------------------|
B|--------------------------------------------------------------------------------------|
G|-----------5-----------5-----------5-----------5-----------5-----------5-----------5--|
D|-5---5---5---7---7---7---7---7---7---------------------------7---7---7---7---7---7----|
A|---7---7-------8---8-------8---8-----7---7---7---7---7---7-----8---8-------8---8------|
E|---------------------------------------8---8------8---8-------------------------------|

E|-----------------------------|
B|-----------------------------|
G|------------7---------------o|
D|--------------9----9----9---o|
A|--7---7---7-----10---10------|
E|----8---8--------------------|

guitar 2

E|----------------------------------------------------------------------------|
B|----------------------------------------------------------------------------|
G|--5-5-5-5-5-5-5-5-9--9--4-4-4-4-4-4-4-4-4-4-4-4-4-4-4-4-7-7-5-5-5-5-5-5-5-5-|
D|--7-7-7-7-7-7-7-7-10-10-5-5-5-5-5-5-5-5-5-5-5-5-5-5-5-5-9-9-7-7-7-7-7-7-7-7-|
A|----------------------------------------------------------------------------|
E|----------------------------------------------------------------------------|

E|---------------------------------------------------------------------------------|
B|---------------------------------------------------------------------------------|
G|--9--9--9--9--9--9--9--9--12-12-9--9--9--9--9--9--9--9--7-7-9--9--9--9--9--12-12-|
D|--10-10-10-10-10-10-10-10-14-14-10-10-10-10-10-10-10-10-9-9-10-10-10-10-10-14-14-|
A|---------------------------------------------------------------------------------|
E|---------------------------------------------------------------------------------|





    Am        C          Dm    
	tired eyes, open wide
                F              Am
	blossom iris into lily white
              C          Dm
	tired eyes, open wide
              F              Am
	salty brine - bluest sky
              C          Dm
 	tired eyes, open wide
               F                         Am
	either side - all these veins of light!




Am    C    Dm    F


E|-----------------------|---------------------------|----------------------------|
B|-----------------------|---------------------------|----------------------------|  
G|-------5---7-------5---|-------5--7-------5h7p5----|------5--7-----5h7-----5h7--|  
D|--5h7--------5-5-7-----|--5h7-------5--7-----------|-5h7-------5h7-----5h7------|
A|-----------------------|---------------------------|----------------------------|
E|-----------------------|---------------------------|----------------------------|   
(Continue until finish
with a few variations in Am)
Добавлено: 01.04.2012
Другие материалы по этой песне:
  • Аккорды и текст

Страница создана 01.04.2012
http://primanota.ru/hey-rosetta/tired-eyes-chords.htm
Привет, Гость.
Предлагаем пройти революционный курс по гитаре.
Подарок от PrimaNota.Ru, забирай!