PrimaNota.ru - самый крупный в мире бесплатный архив песенных текстов, аккордов, табулатур и нот


Hey Rosetta - Red Song - таба, видео

Регистрация Запомнить меня
Войти через:  Facebook Google Twitter Vk Yandex Mail.ru

Hey Rosetta - Red Song - таба, видео

Печатать
Просмотров: 132
This song isn't officially released, but I thought I'd tab it anyway.

Here's the video:  http://www.youtube.com/watch?v=e82i9HkIh4M


Intro: Play once without lyrics.                                 



            In the white I wake up           

     Dmin            Dmin slide         Am                        G
e|--------1-----------------3-----------------0-------------------------------------------|
B|----3-----3---------5--------5--------1--------1--------1----------3----0---------------|
G|------2------2s4-------4--------4--------2----------2-----2--0--------------------------|
D|--0---------------0---------------------------------------------------------------------|
A|------------------------------------0-----------0---------------------------------------|
E|----------------------------------------------------------------3-----3-----------------|
-
            In the white I die

     Dmin            Dmin slide             Am                            G
e|--------1-----------------3-----------------0-------------------------------------------|
B|----3-----3---------5--------5--------1--------1------1----1------1---0-----------------|
G|------2------2s4-------4--------4--------2----------------------------------------------|
D|--0---------------0-------------------------------0h2---------0h2--------0--------------|
A|------------------------------------0--------------------0------------------------------|
E|--------------------------------------------------------------------3-------------------|


           
           Somewhere in the red, I see your eyes

     Dmin            Dmin slide         Am             G                
e|--------1-----------------3-----------------0---------------3---------------------------|
B|----3-----3---------5--------5--------1--------1--0----3-------3------------------------|
G|------2------2s4-------4--------4--------2----------------------------------------------|
D|--0--------0-----0---------------------------------------0-------0----------------------|
A|------------------------------------0-----------0---------------------------------------|
E|----------------------------------------------------3----------------2------------------|
 

     D                               F
e|-----------2-------------------------------1--------------------------------------------|
B|-----3--------3--------3-----3-------1--------1-------1--------3------------------------|
G|---------------------2-----2------------2----------2--------2---------------------------|
D|----------------------------------3-------------3--------3------------------------------|
A|----------------------------------------------------------------------------------------|
E|--2-----2---------2------2--------------------------------------------------------------|



Repeat for verses 2, 3, 6 


In the green I'm out walking                   Verse 2

and in the green I live

Somewhere in the red, I have your lips


Emin  Amin  F  C                               Bridge  ---------Basically the same picking pattern

Em              Am      
I dream of a cloud    
                         
F               C
I dream of you

                                               

In the blue I'm rising, like an ocean          Verse 3

and in the blue it's down, I sail

Somewhere in the red, I taste your skin


Am                  C         F 
The girls they loved his face                  Verse 4  Strum

Am                         C         G     F
Cut their fingers and they could not look away

but your son never saw a thing

his eyes wrapped in all these dreams

Coloured cloth in autumn gray

Coloured cloth covered with bloody stains


Em                Am    
and without the pain                           Bridge 2

F                 C
we learn to love again

My dream to find

My dream come true


                    
In the black I feel you                        Verse 6

In the black I sense

Somewhere in the red, the colours end           End on D
Добавлено: 03.06.2012
Другие материалы по этой песне:
  • Аккорды и текст

Страница создана 03.06.2012
http://primanota.ru/hey-rosetta/red-song-chords.htm
Привет, Гость.
Предлагаем пройти революционный курс по гитаре.
Подарок от PrimaNota.Ru, забирай!