PrimaNota.ru - самый крупный в мире бесплатный архив песенных текстов, аккордов, табулатур и нот


Hey Rosetta - Into The Night - таба, видео

Регистрация Запомнить меня
Войти через:  Facebook Google Twitter Vk Yandex Mail.ru

Hey Rosetta - Into The Night - таба, видео

Печатать
Просмотров: 109
Author/Artist: Hey Rosetta
Title: Into the Night
Album: EP
Transcribed by: Phil Kean
Email: phresh@nl.rogers.com

^=Harmonic
*=Staccato note

 Standard Tuning, Two guitars

 Guitar One, Main Riff: Repeat as needed

 (0:13)
----------------------|-------------------------------------------------------|
----8-------8---------|-------------------------------------------------------|
--9---9--7----9--7---0|-------------------------------------------------------|
---------------------0|-------------------------------------------------------|
----------------------|-------------------------------------------------------|
----------------------|-------------------------------------------------------|

 Guitar 2:

 (0:21)
--------12^-12^-----7^-7^-----------------------------------------------------|
--------12^-12^-----7^-7^------7^---------------------------------------------|
--------12^-12^----------------7^---------------------------------------------|
-------------------------------7^---------------------------------------------|
-x-x--------------------------------------------------------------------------|
-x-x--------------------------------------------------------------------------|

 (0:32)                                      *stacatto
------------------------------------------------------------------------------|
---------------------------------------------8-------8--8-8-------------------|
-0----0-0---0-0---0-0------0-----0-0---0-0---7-------7--7-7-------------------|
-0h2--0-0---0-0---0-0---0--0h2---0-0---0-0---9-------9--9-9-------------------|
-2--x-2-2-x-2-2-x-2-2-x-2--2---x-2-2-x-2-2-x-7-------7--7-7-------------------|
-0--x-0-0-x-0-0-x-0-0-x-0--0---x-0-0-x-0-0-x----------------------------------|

 Hold Em7 Shape Throughout:

 (0:42)
-7-10-10--9-9--9---------9-9p7-7---7-----------7-10-9--10-9---7-9-7-----------|
-8--8--8--8-8--8---------8-8---8---8-----------8--8-8---8-8---8-8-8-----------|
-7--7--7--7-7--7-------x-7-7---7-x-7-----------7----7-x-7-7---7-7-7-----------|
-9-----9--9-9--9-------x-9-9---9-x-9------------------x-9-9---9-9-9-----------|
-7-----7--7-7--7-------x---------x----------------------------7-7-7-----------|
------------------------------------------------------------------------------|

 (0:52)                                                                   * *
----------------------------------------------------------0--0-0--0-0-0-0-0-0-|
----------------------------------------------------------1--1-1--1-1-1-1/3-3-|
-0-0--------------------------------------------------x---0--0-0--0-0-0-0/0-0-|
-0-0-0h7-9-9-9----7h9-9-9-9---7h9-9-9-9---7h9-9-9-9---x-0-2--2-2--2-2-2-2/4-4-|
-2-2-0h7-7-7-7--x-7---7-7-7-x-7---7-7-7-x-7---7-7-7---x-0-3--3-3--3-3-3-3/5-5-|
-0-0-0---0-0-0--x-0---0-0-0-x-0---0-0-0-x-0---0-0-0---------------------------|

 VERSE:

 Guitar 1:

 (1:03)
------------------------------------------------------------------------------|
------------------------------------------------------------------------------|
--------------------------------5-5-5-5-5-3/7-7-7-7-7-7-----------------------|
-7h9---9--9----9--9----9--9-----5-5-5-5-5-5/7-7-7-7-7-7-----------------------|
-7---x-7--7--x-7--7--x-7--7--x--3-3-3-3-3-5/5-5-5-5-5-5-----------------------|
-0---x-0--0--x-0--0--x-0--0--x------------------------------------------------|

 Guitar 2:

 (1:03)
-----x-10-10-x-10-10-x-10-10-x------------------------------------------------|
-----x-8--8--x-8--8--x-8--8--x--1-x-1-1-x-1/3-3-x-3-3-x-----------------------|
-----x-7--7--x-7--7--x-7--7--x--0-x-0-0-x-0/0-0-x-0-0-x-----------------------|
-7h9---9--9----9--9----9--9-----2-x-2-2-x-2/4-4-x-4-4-x-0---------------------|
-7-----7--7----7--7----7--7---0-3---3-3---3/5-5---5-5---0---------------------|
-0----------------------------0-----------------------------------------------|

 G1:

------------------------------------------------------------------------------|
------------------------------------------------------------------------------|
--------------------------------5-5-5-5-5-3/7-7-7-7-7-7-----------------------|
-7h9---9--9----9--9----9--9-----5-5-5-5-5-5/7-7-7-7-7-7-----------------------|
-7---x-7--7--x-7--7--x-7--7--x--3-3-3-3-3-5/5-5-5-5-5-5-----------------------|
-0---x-0--0--x-0--0--x-0--0--x------------------------------------------------|

 G2:

-----x-10-10-x-10-10-x-10-10-x------------------------------------------------|
-----x-8--8--x-8--8--x-8--8--x--1-x-1-1-x-1/3-3-x-3-3-x-----------------------|
-----x-7--7--x-7--7--x-7--7--x--0-x-0-0-x-0/0-0-x-0-0-x-----------------------|
-7h9---9--9----9--9----9--9-----2-x-2-2-x-2/4-4-x-4-4-x-0---------------------|
-7-----7--7----7--7----7--7---0-3---3-3---3/5-5---5-5---0---------------------|
-0----------------------------0-----------------------------------------------|

 G1:
 (1:15)
------------------------------------------------------------------------------|
------------------------------------------------------------------------------|
-----------------------------5-5-5-5-5-5/7-7-7-7-7----------------------------|
-7h9---9-9----7h9---9-9------5-5-5-5-5-5/7-7-7-7-7----------------------------|
-7---x-7-7-x--7---x-7-7-x----3-3-3-3-3-3/5-5-5-5-5--0-------------------------|
-0---x-0-0-x--0---x-0-0-x---------------------------0-------------------------|

 G2:
 (1:15)
-----x-----x------x-----x-----------------------------------------------------|
-----x-8-8-x------x-8-8-x----1-x-1-1-x-1/3-3-x-3-3-x--------------------------|
-----x-7-7-x------x-7-7-x----0-x-0-0-x-0/0-0-x-0-0-x--------------------------|
-7h9---9-9----7h9---9-9------2-x-2-2-x-2/4-4-x-4-4-x-0------------------------|
-7-----7-7----7-----7-7----0-3---3-3---3/5-5---5-5---0------------------------|
-0-----------0-------------0--------------------------------------------------|

 G1:
 (1:22)
------------------------------------------------------------------------------|
------------------------------------------------------------------------------|
--------------------------------5-5-5-5-5-3/7-7-7-7-7-7-----------------------|
-7h9---9--9----9--9----9--9-----5-5-5-5-5-5/7-7-7-7-7-7-----------------------|
-7---x-7--7--x-7--7--x-7--7--x--3-3-3-3-3-5/5-5-5-5-5-5-----------------------|
-0---x-0--0--x-0--0--x-0--0--x------------------------------------------------|

 G2:
 (1:22)
-----x-------x-------x-------x------------------------------------------------|
-----x-8--8--x-8--8--x-8--8--x--1-x-1-1-x-1/3-3-x-3-3-x-----------------------|
-----x-7--7--x-7--7--x-7--7--x--0-x-0-0-x-0/0-0-x-0-0-x-----------------------|
-7h9---9--9----9--9----9--9-----2-x-2-2-x-2/4-4-x-4-4-x-0---------------------|
-7-----7--7----7--7----7--7---0-3---3-3---3/5-5---5-5---0---------------------|
-0----------------------------0-----------------------------------------------|

 CHORUS (2x): G1&2

 (1:29)
-3-|-2-|-0-|-0-|--------------------------------------------------------------|
-3-|-3-|-0-|-1-|--------------------------------------------------------------|
-0-|-2-|-0-|-0-|--------------------------------------------------------------|
-0-|-0-|-0-|-2-|--------------------------------------------------------------|
-2-|---|-2-|-3-|--------------------------------------------------------------|
-3-|---|-0-|---|--------------------------------------------------------------|

 Palm Mute:1x
 (1:53)
------------------------------------------------------------------------------|
------------------------------------------------------------------------------|
-0-0-0-0-0-0-0-0-0-0-0-0-0-0-0-0\0-0-0-0-0-0-0-0-0-0-0-0-0-0-0-0--------------|
-4-4-4-4-4-4-4-4-4-4-4-4-4-4-4-4\2-2-2-2-2-2-2-2-2-2-2-2-2-2-2-2--------------|
-5-5-5-5-5-5-5-5-5-5-5-5-5-5-5-5\3-3-3-3-3-3-3-3-3-3-3-3-3-3-3-3--------------|
------------------------------------------------------------------------------|

 And you can feel...              *
 (2:00)
------------------------------------------------------------------------------|
------------------------------------------------------------------------------|
-0--0-0--0--2--2-2--2--4--4-4--4----------------------------------------------|
-0--0-0--0--4--4-4--4--5--5-5--5--7-7-----------------------------------------|
-2--2-2--2--4--4-4--4--5--5-5--5--7-7-----------------------------------------|
-0--0-0--0--2--2-2--2--3--3-3--3--5-5-----------------------------------------|

The rest of the song is pretty similar,just play around with the Em7 Shape for the verses,
I also saved the solo for another day, feel free to add to this tab.
Добавлено: 23.07.2012
Другие материалы по этой песне:
  • Аккорды и текст

Страница создана 23.07.2012
http://primanota.ru/hey-rosetta/into-the-night-chords.htm
Привет, Гость.
Предлагаем пройти революционный курс по гитаре.
Подарок от PrimaNota.Ru, забирай!