PrimaNota.ru - самый крупный в мире бесплатный архив песенных текстов, аккордов, табулатур и нот


Hey Ocean - Eskimo Kisses - бас-таба, видео

Регистрация Запомнить меня
Войти через:  Facebook Google Twitter Vk Yandex Mail.ru

Hey Ocean - Eskimo Kisses - бас-таба, видео

Печатать
Просмотров: 101
Уроки эстрадного вокала в Санкт-Петербурге
Here is the bass intro to the song Eskimo Kisses. Don't you wish Vertesi always had such 
cool bass lines?

E|------------------------------------------------------------------------------------------|
B|------------------------------------------------------------------------------------------|
G|------------------------------------------------------------------------------------------|
D|-------------------------------------------------------2----------------------------------|
A|----------------------------------0----2----3---------------2----------0--2--3----2-------|
E|--0----------0--2--3----2----0------------------------------------------------------------|



E|---------------------------------------|
B|---------------------------------------|
G|---------------------------------------|
D|---------------------------------------|               x forever until the chorus
A|-----0----0------2--0------------------|
E|--0--------------------3--2------------|
Добавлено: 28.12.2013
Другие материалы по этой песне:
  • Аккорды и текст

Страница создана 28.12.2013
http://primanota.ru/hey-ocean/eskimo-kisses-chords.htm
Привет, Гость.
Предлагаем пройти революционный курс по гитаре.
Подарок от PrimaNota.Ru, забирай!