PrimaNota.ru - самый крупный в мире бесплатный архив песенных текстов, аккордов, табулатур и нот


Hey Ocean - Be My Baby - аккорды и текст, таба, видео

Регистрация Запомнить меня
Войти через:  Facebook Google Twitter Vk Yandex Mail.ru

Hey Ocean - Be My Baby - аккорды и текст, таба, видео

Печатать
Просмотров: 106
Be My Baby
Hey Ocean
My first actual tab, let me know if you spot any mistakes.

Chords used:
     D      Bm     G      Em     E      A7     A     F#m
e|---2------2------3------0------0------0------0------2----|
B|---3------3------3------0------0------2------2------2----|
G|---2------4------0------0------1------0------2------2----|
D|---0------4------0------2------2------2------2------4----|
A|---x------2------2------2------2------0------0------4----|
E|---x------x------3------0------0------x------x------2----|



Intro Riff:
e|--------------------------|--------------------------|-------------------------|-----------------------|
B|---------------10--7------|---------------10--7------|-------------------------|-----------------------|
G|--7---7--777----------9-7-|--7---7--777----------9-7-|-------------11--9--7----|------------7--4--6--7-|
D|--------------------------|--------------------------|--9---9--999-----------9-|--5---5--555-----------|
A|--------------------------|--------------------------|-------------------------|-----------------------|
E|--------------------------|--------------------------|-------------------------|-----------------------|

Intro:  D Bm G

D                         Em         A7
The night we met I knew I needed you so
D                           Em            A
And if I had the chance I'd never let you go
F#m                           Bm
So won't you say you love me? I'll make you so proud of me
E                               A7                A
We'll make 'em turn their heads every place we go

              D
Oh won't you, please?
(Be my, be my baby)
             Bm
Be my little baby
(My one and only baby)
                 G
Say you'll be my darlin'
(Be my, be my baby)
           A
Be my baby now
(My one and only baby)
Whoa oh oh oh

Intro Riff: D Bm G

D                          Em            A7
I'll make you happy, baby, just wait and see
D                           Em            A
For every kiss you give me, I'll give you three
F#m                          Bm 
Oh, since the day I saw you, I have been waiting for you
E                          A7            A
You know I will adore you 'til eternity

              D
Oh won't you, please?
(Be my, be my baby)
             Bm
Be my little baby
(My one and only baby)
                 G
Say you'll be my darlin'
(Be my, be my baby)
           A
Be my baby now
(My one and only baby)
Whoa oh oh oh

D       
Ooooo
(Be my, be my baby)
             Bm
Be my little baby
(My one and only baby)
                 G
Say you'll be my darlin'
(Be my, be my baby)
           A
Be my baby now
(My one and only baby)
Whoa oh oh oh


Instrumental Break:  D Bm G x4

D           Bm
Be my little baby
                G
Say you'll be my darlin'
           A
Be my baby now

E|-5----3--2--0--
   Whoa oh oh oh
D      Bm   G    A   
Whoa   oh   oh   oh,  Woah oh oh oh,
D      Bm   G    A
whoa   oh   oh   oh...

D
Добавлено: 13.04.2016
Вам также может быть интересно:
Другие материалы по этой песне:
  • Аккорды и текст

Страница создана 05.06.2014
http://primanota.ru/hey-ocean/be-my-baby-chords.htm
Привет, Гость.
Предлагаем пройти революционный курс по гитаре.
Подарок от PrimaNota.Ru, забирай!