PrimaNota.ru - самый крупный в мире бесплатный архив песенных текстов, аккордов, табулатур и нот


Hey Monday - Wish You Were Here - аккорды и текст, таба, видео

Регистрация Запомнить меня
Войти через:  Facebook Google Twitter Vk Yandex Mail.ru

Hey Monday - Wish You Were Here - аккорды и текст, таба, видео

Печатать
Просмотров: 189
Wish You Were Here
Hey Monday
 wish you were here.
 album:  beneath it all
 artist: hey monday.
 label:  decaydance/columbia records
 2010

CAPO 2 :)

HEY MONDAY'S NEW ALBUM, BENEATH IT ALL, COMES OUT ON AUGUST 17TH. PRE-ORDER NOW!





Bb   F     Eb 
            Ohhh Oh. 
Bb   F     Eb 
           Ohhh Oh.

Bb                   F    
Heres my heart and a postcard darlin'
Bb/D                 Eb
Just one step from the edge
Bb                  F    
Sleep alone and it's so hard darlin'
Bb/D                   Eb
Youre next to me in my head

                        
 Bb                 F                    Bb                                 
But its too late, too late to call,
              Bb/D  F
Are you out there?
 Bb        F         Eb
Too late, too much to say...


               Bb/D                                           
Wish you were here
           F
Wish you well
           Bb           Eb 
If you only shared this hell
           Bb                                          
But you leave
        Bb/D              F
And the stains are left on me
             

Bb/D                                           
I wish you
       F        Eb                                           
I wish you were here
      Bb/D                                           
I wish you
       F        Bb     F     Eb
I wish you were here

Ohhh, Oh.
Bb F  Eb 
Ohhh, Oh.


Bb                  F    
Heres my Hollywood ending callin'
Bb/D               Eb
Everyday fades to black
Bb                  F    
Sick and tired of pretending darlin'
Bb/D                  Eb
That youll never come back

Bb          F         Bb                                 
But its too late, too late to call,
       Bb/D  F
Are you out there?
 Bb       F            Eb
Too late, too much to say...

              Bb/D                                           
Wish you were here
           F
Wish you well
       Bb               Eb 
If you only shared this hell
           Bb                                          
But you leave
       Bb/D                 F
And the stains are left on me
             

Bb/D                                           
I wish you
       F        Eb                                           
I wish you were here
      Bb/D                                           
I wish you
      F         Bb    F   Eb
I wish you were here


Bb /D
to tell me,
Eb
Something
Bb          F
Dont be down,
Down again

Eb 
Im rockin'
Bb /D        F
I rose it up.
 

Wish you were here
e:---------------------------------1-----------------------------|
B:------------------------------3--------------------------------|
g:--------------------------3------------------------------------|
D:----------------------3----------------------------------------|
a:---------------------------------------------------------------|
E:---------------------------------------------------------------|




Wish you well
e:---------------------------------1-----------------------------|
B:------------------------------2--------------------------------|
g:--------------------------3------------------------------------|
D:----------------------3----------------------------------------|
a:---------------------------------------------------------------|
E:---------------------------------------------------------------|


       Bb               F       
Добавлено: 01.06.2012
Другие материалы по этой песне:

Страница создана 03.04.2012
http://primanota.ru/hey-monday/wish-you-were-here-chords.htm
Привет, Гость.
Предлагаем пройти революционный курс по гитаре.
Подарок от PrimaNota.Ru, забирай!