PrimaNota.ru - самый крупный в мире бесплатный архив песенных текстов, аккордов, табулатур и нот


Hey Monday - How You Love Me Know - таба, видео

Регистрация Запомнить меня
Войти через:  Facebook Google Twitter Vk Yandex Mail.ru

Hey Monday - How You Love Me Know - таба, видео

Печатать
Просмотров: 74
There were no tabs for this and I love this song
the end.  But yeah I probably goofed a couple 
times in the order or w.e but all the chords and
stuff is there so fix it if you must. ENJOY!!!!
OOOPS I KNOW I SPELL NOW WRONG IT WAS A TYPO!!! 
INTRO
e-----------------------------------------|
b-----------------------------------------|
g-10-10--5-5---10-10--5-5-----------------|
d--x-x---x-x----x-x---x-x-----------------|
a--8-8---3-3----8-8---3-3-----------------|
E-----------------------------------------|

e--------------------------------------------------|
b--------------------------------------------------|
g--1010101010101010----------------7777777733333333|
d---x-x-x-x-x-x-x-x1010101010101010xxxxxxxxxxxxxxxx|
a---8-8-8-8-8-8-8-8-x-x-x-x-x-x-x-x5555555511111111|
E-------------------8-8-8-8-8-8-8-8----------------|

VERSE
e-------------------------------------------------|
b-------------------------------------------------|
g-1010101010101010----------------7777777733333333|x2
d-101010101010101010101010101010107777777733333333|
a-----------------1010101010101010----------------|
E-------------------------------------------------|

PRE CHORUS
e-----------------------------------------|
b-----------------------------------------|
g-7-7-xxx-5-5-xx--7-7-7--3~~--------------|
d-7-7-xxx-5-5-xx--7-7-7--3~~--------------|
a-5-5-xxx-3-3-xx--5-5-5--1~~--------------|
E-----xxx-----xx--------------------------|
                     .                                         
CHORUS
e-----------------------------------------------------|
b-----------------------------------------------------|
g-1010101010101010----------------7777777733333333----|
d-101010101010101010101010101010107777777733333333----|x3 then
a--8-8-8-8-8-8-8-810101010101010105555555511111111----|
e------------------8-8-8-8-8-8-8-8--------------------|

e-------------------------------------------------------|
b-------------------------------------------------------|
g-1010101010101010----------------77-7-77-77--33--3-3333|
d-1010101010101010101010101010101077-7-77-77--33--3-3333|
a--8-8-8-8-8-8-8-8101010101010101055-5-55-55--11--1-1111|
e------------------8-8-8-8-8-8-8-8----------------------|
                                  ..   ..     ..   

VERSE
e-------------------------------------------------|
b-------------------------------------------------|
g-1010101010101010----------------7777777733333333|x2
d-101010101010101010101010101010107777777733333333|
a-----------------1010101010101010----------------|
E-------------------------------------------------|

PRE CHORUS
e-----------------------------------------|
b-----------------------------------------|
g-7-7-xxx-5-5-xx--7-7-7--3~~--------------|
d-7-7-xxx-5-5-xx--7-7-7--3~~--------------|
a-5-5-xxx-3-3-xx--5-5-5--1~~--------------|
E-----xxx-----xx--------------------------|
                     .                        

CHORUS
e-----------------------------------------------------|
b-----------------------------------------------------|
g-1010101010101010----------------7777777733333333----|
d-101010101010101010101010101010107777777733333333----|x3 then
a--8-8-8-8-8-8-8-810101010101010105555555511111111----|
e------------------8-8-8-8-8-8-8-8--------------------|

e-------------------------------------------------------|
b-------------------------------------------------------|
g-1010101010101010----------------77-7-77-77--33-3--3333|
d-1010101010101010101010101010101077-7-77-77--33-3--3333|
a--8-8-8-8-8-8-8-8101010101010101055-5-55-55--11-1--1111|
e------------------8-8-8-8-8-8-8-8----------------------|
                                  ..   ..     ..   

BRIDGE
e---------------------------------------------------------|
b---------------------------------------------------------|
g-33333333----------------77777777333333337777777733333333|
d-33333333101010101010101077777777333333337777777733333333|
a-11111111101010101010101055555555111111115555555511111111|
E------------8-8-8-8-8-8-8--------------------------------|

e-------------------|                  -----------------
b-------------------|                  -----------------
g-5-5---10-10--5-5--|                  -7777777733333333
d-x-x----x-x---x-x--|REPEAT INTRO then -7777777733333333then last
a-3-3----8-8---3-3--|                  -5555555511111111part on
E-------------------|                  -----------------chorus
                                        ....    ........  
CHORUS
e-----------------------------------------------------|
b-----------------------------------------------------|
g-1010101010101010----------------7777777733333333----|
d-101010101010101010101010101010107777777733333333----|then
a--8-8-8-8-8-8-8-810101010101010105555555511111111----|
e------------------8-8-8-8-8-8-8-8--------------------|

e------------------------------------------------------|
b------------------------------------------------------|
g-1010101010101010----------------77-7-77-77--33-3--333|
d-1010101010101010101010101010101077-7-77-77--33-3--333|
a--8-8-8-8-8-8-8-8101010101010101055-5-55-55--11-1--111|
e------------------8-8-8-8-8-8-8-8---------------------|
                                  ..   ..     ..   

OUTRO
e-----------------------------------------------------|
b-----------------------------------------------------|
g-1010101010101010----------------7777777733333333----|
d-101010101010101010101010101010107777777733333333----|x2 then
a--8-8-8-8-8-8-8-810101010101010105555555511111111----|
E------------------8-8-8-8-8-8-8-8--------------------|

e-----------------------------------------------------------|
b-----------------------------------------------------------|
g-1010101010101010----------------77-7-77-77--33-3--3333----|
d-1010101010101010101010101010101077-7-77-77--33-3--3333-3~~|
a--8-8-8-8-8-8-8-8101010101010101055-5-55-55--11-1--1111-3~~|
E------------------8-8-8-8-8-8-8-8-----------------------1~~|
                                  ..   ..     ..   



Добавлено: 01.02.2014
Другие материалы по этой песне:
  • Аккорды и текст

Страница создана 01.02.2014
http://primanota.ru/hey-monday/how-you-love-me-know-chords.htm
Привет, Гость.
Предлагаем пройти революционный курс по гитаре.
Подарок от PrimaNota.Ru, забирай!