PrimaNota.ru - самый крупный в мире бесплатный архив песенных текстов, аккордов, табулатур и нот


Hey Mercedes - Save A Life - текст песни, таба, видео

Регистрация Запомнить меня
Войти через:  Facebook Google Twitter Vk Yandex Mail.ru

Hey Mercedes - Save A Life - текст песни, таба, видео

Печатать
Просмотров: 155
Tabbed by:Vincent
Email:v_oude_lansink@hotmail.com

Tuning:normal

Intro/chorus
Guitar 1
e|-----------------------------------------------------14----|
B|---9--9--9--9--9--7--7--7--7--9------9-------9-10p9----9---|
G|----9--9--9--9--9--8--8--8--8--8-----9------9-----------9--|
D|--7--7--7--7--7-----9--9--9--9--9--7-7--4/7----------------|
A|--0--------------------------------0-----------------------|
E|-----------------------------------------------------------|

e|-----------------------------------------------------------|
B|--9999999999999999-----------------9---9---9---9----9---9--|
G|--9999999999999999-----------------9----9---9---9----9---9-|
D|--7777777777777777-666666666666666-7-----------------------|
A|--0000000000000000-666666666666666-0-----------------------|
E|-------------------444444444444444-------------------------|
    Amaj7            G#5             Amaj7
Then after the G#5 you get the Break from the intro to the verse:
e|-----------------------------------------------|
B|-----------1010-9999---------------------------|
G|-4-4/99999-9-9--9999---------------------------|
D|-2-2/77777-7-7--7777---x2----------------------
A--0-0-00000-0-0--0000---------------------------|
E|-----------------------------------------------|

Verse
e|-----------------------------------------------
B|---99999999999--------------------9--999-------|
G|---99999999999--4444444-----------9--999-------|
D|---77777777777--4444444-44-66-x3--7--777-------|
A|---00000000000--2222222-44-66-----0--000-------|
E|----------------2222222-22-44------------------|

Then the Chorus, it's the same as the intro
Repeat verse

Bridge
e|-----------------------\------------------\-------------------------|
B|-----------------------\------------------\-------------------------|
G|--666666-444444-9999999\----------9999999-\--6666/9-888/11-999999---|
D|--xxxxxx-xxxxxx-7777777\--666666--7777777-\--xxxx/x-xxx/x--777777---|
A|--444444-222222-0000000\--666666--0000000-\--4444/7-666/9--000000---|
E|-----------------------\--444444----------\-------------------------|

e|---------------\----------------------\----------------
B|---------------\----------------------\----------------
G|---------999999\--6666/9-888/11-999999\--------999999--|
D|--666666-777777\--xxxx/x-xxx/x--777777\-666666-777777--|
A|--666666-000000\--4444/7-666/9--000000\-666666-000000--|
E|--444444-------\----------------------\-444444---------|

e|---------------\--------------------------|
B|---------------\----------------9-999-----|
G|---------999999\--444444--------9-999-----|
D|--666666-777777\--444444-44-66--7-777-----
A|--666666-000000\--222222-44-66--0-000-----|
E|--444444-------\--222222-22-44------------

Then Play the chorus

greetings

Добавлено: 24.04.2012
Вам также может быть интересно:
Другие материалы по этой песне:
  • Аккорды и текст

Страница создана 02.03.2012
http://primanota.ru/hey-mercedes/save-a-life-chords.htm
Привет, Гость.
Предлагаем пройти революционный курс по гитаре.
Подарок от PrimaNota.Ru, забирай!