PrimaNota.ru - самый крупный в мире бесплатный архив песенных текстов, аккордов, табулатур и нот


Hexen - Blast Radius - таба, видео

Регистрация Запомнить меня
Войти через:  Facebook Google Twitter Vk Yandex Mail.ru

Hexen - Blast Radius - таба, видео

Печатать
Просмотров: 99
-------------------------------------------------------------------------------
                             Blast Radius - Hexen
-------------------------------------------------------------------------------
Tabbed by: 1TurboZ31
Email:

Tuning:*1/2 step down*

A1
eb|--------------------------------------------------------------------------------------|
Bb|--------------------------------------------------------------------------------------|
Gb|--------------------------------------------------------------------------------------|
Db|----9--7--5--------0-1---9--7--5-2-2-2-2-0-2---9--7--5--------0-1---9--7--5--4-5-7-9--| x1
Ab|----7--5--3-0-2-3-5------7--5--3-2-2-2-2-0-2---7--5--3-0-2-3-5------7--5--3--2-3-5-7--|
Eb|--00-00-00-------------00-00-00--------------00-00-00-------------00-00-00-00---------|
     ** ** **             ** ** **              ** ** **             ** ** ** **
A2
eb|--------------------------------------------|
Bb|--------------------------------------------|
Gb|--------------------------------------------|
Db|----9--5--4-------------9--4--5-------------| x4
Ab|----7--3--2--0h2p0------7--2--3--0h2p0------|
Eb|--00-00-00-00-----1-0-00-00-00-00-----0-1---|
     ** ** ** **         ** ** ** **
A3
eb|----------------------------------------------------|
Bb|----------------------------------------------------|
Gb|----------------------------------------------------|
Db|-------9-----9-----9-5-7-----2-----4-----5-----5-4--| x2
Ab|-------7-----7-----7-3-5-----0-----2-----3-3p0-3-2--|
Eb|--0-000-0-000-0-000-----0-000-0-000-0-000-----------|
     * *** * *** * ***     * *** * ***
A4
eb|----------------------------------|
Bb|----------------------------------|
Gb|----------------------------------|
Db|-----------------------------5-4--| x4
Ab|------7-7-5-3-5-3-2---3--2-3-3-2--|
Eb|---000-0-----------000-00---------|
      *** *           *** **
A5
eb|-------------------------------|
Bb|-------------------------------|
Gb|-------------------------------|
Db|----------------------7---5-4--| x4
Ab|--7-7-7-7-8-7-5-3-5-3-5---3-2--|
Eb|--5--------------------000-----|
                          ***
A6
eb|----------------------------------------------------------------------------|
Bb|----------------------------------------------------------------------------|
Gb|----------------------------------------------------------------------------|
Db|--------------2-------------------2-------------------3-------------(3)-----| x3
Ab|--0-000-0-0-0-0-0-000-0-000-0-0-0-0-0-000-1-111-1-1-1-1-1-111-000000---000--|
Eb|----------------------------------------------------------------------------|

A7
eb|-------------------------------|
Bb|-------------------------------|
Gb|-------------------------------|
Db|--9--9--9--9--11--11-----------| x2
Ab|--7--7--7--7--9---9----9----9--|
Eb|---00-00-00-00--00--00-7-00-7--|
      

(insert solo here) Sorry, but i didn't even bother to try to tab it. Maybe someone 
else is up to the task.

A8
eb|-----------------------------------------------------------------------------------------|
Bb|-----------------------------------------------------------------------------------------|
Gb|-----------------------------------------------------------------------------------------|
Db|----9-10-9-10-9-7--9-7----------9-10-7----10--12--9--9-10-9-10-9-7--9-7------------------| x1
Ab|--77-7--7-7------10---10-9-------------------------77-7--7-7------10---10-9-10-10-12-12--|
Eb|------------------------------88-8--8-1010--10--10--------------------------8--8--10-10--|

A9
eb|-----------------------------------------------------|
Bb|-----------------------------------------------------|
Gb|-----------------------------------------------------|
Db|----9-10-9-10-9-7--9-7----------9-10-7----10--12--9--| x2
Ab|--77-7--7-7------10---10-9---------------------------|
Eb|------------------------------88-8--8-1010--10--10---|

A10
eb|--------------------------------------------------------------------------------|
Bb|--------------------------------------------------------------------------------|
Gb|--------------------------------------------------------------------------------|
Db|--9--------10----7-9-10-9-9--------(9h10p9)-12----------------------------------| x2
Ab|---77777777--7777----------77777777--------7--7777 10-7-9--------------------2--|
Eb|----------------------------------------------------------2nd Time end with:-0--|

Play parts A2-A5 again.

************************************
| *   palm mute
| ()  pinch harmonic
| /   slide up
| \   slide down
| h   hammer-on
| p   pull-off
| ~   vibrato
| +   harmonic
| x   Mute note
| b   Bend
| pb  Pre-bend
| br  Bend release
| pbr Pre-bend release
| brb Bend release bend

************************************
Добавлено: 08.07.2012
Другие материалы по этой песне:

Страница создана 16.04.2012
http://primanota.ru/hexen/blast-radius-chords.htm
Привет, Гость.
Предлагаем пройти революционный курс по гитаре.
Подарок от PrimaNota.Ru, забирай!