PrimaNota.ru - самый крупный в мире бесплатный архив песенных текстов, аккордов, табулатур и нот


Hewitt Huntwork - I Will Crumble - таба, видео

Регистрация Запомнить меня
Войти через:  Facebook Google Twitter Vk Yandex Mail.ru

Hewitt Huntwork - I Will Crumble - таба, видео

Печатать
Просмотров: 101
I don't think they have any tabs for this song, so here it is.
"I Will Crumble"
By Hewitt Huntwork

Tabbed by mazz929
Any Questions or Suggestions email to mkhan929@gmail.com


e----------------------------------------------------------------------------------------0-------0-------0-------0-|
B------------------------------------------------------------------------------------------------------------------|
G-----------2---------2--------2--------2------1---2-----1---2----1---2----1---2-----2-1-----2-1-----2-1-----2-1---|
D-------2-2-------2-2------2-2------2-2----------2---------2--------2--------2-----0-------0-------0-------0-------|
A----0----------0--------0--------0--------------------------------------------------------------------------------|
E--------------------------------------------2---------2--------2--------2-----------------------------------------|

e---------4-------4-------4-------4--|
B-----3-0-----3-0-----3-0-----3-0----|
G------------------------------------|
D---2-------2-------2-------2--------|
A------------------------------------|
E------------------------------------|  Repeat twice for each verse


Chorus:

e----------------------------------------------0-------0---------4--------4--|
B------------------------------------------------------------3-0------3-0----|
G-----1---2----1---2--------2--------2-----2-1-----2-1-----------------------|
D-------2--------2------2-2------2-2-----0-------0---------2--------2--------|
A---------------------0--------0---------------------------------------------|
E---2--------2---------------------------------------------------------------|  Repeat 
for Chorus..second time chorus leads into Bridge

Bridge:
e---------0---------0--------4-------4----------------------------------------------0-------0--------4--------4-----|
B------------------------3-0-----3-0-------------------------------------------------------------3-0------3-0-------|
G-----2-1-------2-1-----------------------1---2-----1---2---------2--------2----1-2-----1-2-------------------------|
D----0---------0--------2-------2------------2---------2-------2-2-----2-2----0-------0--------2--------2-----------|
A-----------------------------------------------------------0--------0----------------------------------------------|
E---------------------------------------2---------2-----------------------------------------------------------------|


Outro:
e---------0--|
B------------|
G-----2-1----|   Repeat until song fades and Electric guitar comes in.
D---0--------|
A------------|
E------------|

Electric Guitar (Clean):
e----0--0---------17----16\---------12----12----12-----------------------------------------------------|
B----0--0------14----14----------14----14----14---------/14-14-14-14-14--10h12-10h12-----/14-14-14-14--|
G----1--1----------------------------------------------------------------------------------------------|
D----2--2----------------------------------------------------------------------------------------------|
A----2--2----------------------------------------------------------------------------------------------|
E----0--0----------------------------------------------------------------------------------------------|

e----------------|
B-14-------------|
G----9h11-9h11---|
D----------------|
A----------------|
E----------------|  Play until Fade out


Pretty easy song to play. Enjoy!
Добавлено: 23.07.2012
Другие материалы по этой песне:
  • Аккорды и текст

Страница создана 23.07.2012
http://primanota.ru/hewitt-huntwork/i-will-crumble-chords.htm
Привет, Гость.
Предлагаем пройти революционный курс по гитаре.
Подарок от PrimaNota.Ru, забирай!