PrimaNota.ru - самый крупный в мире бесплатный архив песенных текстов, аккордов, табулатур и нот


Hewhocannotbenamed - Duct Tape Love - бас-таба, видео

Регистрация Запомнить меня
Войти через:  Facebook Google Twitter Vk Yandex Mail.ru

Hewhocannotbenamed - Duct Tape Love - бас-таба, видео

Печатать
Просмотров: 71
Intro/Solo
G-----------------------------------------|-----------------------------------------|
D-----------------------------------------|-----------------------------------------|
A-0-0-0-0-0-----------5-5-5-5-5-----------|-0-0-0-0-0-----------5-5-5-5-5-5-5-5-5-5-|
E-----------1-1-1-1-1-----------3-3-3-3-3-|-----------1-1-1-1-1---------------------|

Verse
G---------------------------------|---------------------------------|
D---------------------------------|-------------------------2-2-2-2-|
A-0-0-0-0---------3-3-3-3---------|-0-0-0-0---------3-3-3-3---------|
E---------1-1-1-1---------3-3-3-3-|---------1-1-1-1-----------------|

G---------------------------------|---------------------------------|
D---------------------------------|---------------------------------|
A-0-0-0-0---------3-3-3-3---------|-0-0-0-0---------5-5-5-5-5-5-5-5-|
E---------1-1-1-1---------3-3-3-3-|---------1-1-1-1-----------------|

Chorus
G------------------------------------------------------------------------|
D------------------------------------------------------------------------|
A-3-3-3-3-3-3-3-3--0-0-0-0-0-0-0-0--7-5----------------------------------|
E---------------------------------------1-1-1-1-1-1-1-1--3-3-3-3-3-3-3-3-|

Outro
G---------------------------------|
D-----------------0-0-0-0-0-0-0-0-|
A-0-0-0-0-0-0-0-0-----------------|
E---------------------------------|


Another Classic for ya, just listen for order
Добавлено: 22.06.2016
Другие материалы по этой песне:
  • Аккорды и текст

Страница создана 22.06.2016
http://primanota.ru/hewhocannotbenamed/duct-tape-love-chords.htm
Привет, Гость.
Предлагаем пройти революционный курс по гитаре.
Подарок от PrimaNota.Ru, забирай!