PrimaNota.ru - самый крупный в мире бесплатный архив песенных текстов, аккордов, табулатур и нот


Heroes Del Silencio - Dos Luces - таба, видео

Регистрация Запомнить меня
Войти через:  Facebook Google Twitter Vk Yandex Mail.ru

Heroes Del Silencio - Dos Luces - таба, видео

Печатать
Просмотров: 94
intro

e/--------0-------------1-------------0---------1-----1---------/
B/----3-----3-------1-----1-------3-----3---------1-----1-------/
G/------2-----2-------3-----3-------2-----2---------3-----3-----/
D/--0-----------0-3-----------3-0-----------0-3-----------------/
A/--------------------------------------------------------------/
E/--------------------------------------------------------------/


e/--------0-------------1-1-----------0---------1-----1---------/
B/----3-----3-------1-------1-----3-----3---------1-----1-------/
G/------2-----2-------3-------3-----2-----2---------3-----3-----/
D/--0-----------0-3-------------0-----------0-3-----------------/
A/--------------------------------------------------------------/
E/--------------------------------------------------------------/



e/---------------------------------/
B/---------------------------------/
G/----2---0---3---2---2---2--------/  (x3)
D/--0---3---3---3---3---3---0------/
A/---------------------------------/
E/---------------------------------/

e/---------------------------------/
B/------------------3--------------/
G/--2---2---3---2-----2------------/
D/----3---3---3---3-----3-0--------/
A/---------------------------------/
E/---------------------------------/

despues

e/------------------13-13-13-13-------------------/
B/-----10-10-10-10--------------8-8-8-8-----------/
G/---------------------------------------7-7-7-7--/ x4
D/------------------------------------------------/
A/------------------------------------------------/
E/------------------------------------------------/

versos

La decadencia esta prohibida en tu mente
e/-----------------------------------------/
B/-----------------------------------------/
G/-----------------------------------------/
D/---7---7---7-8-7------7---7---7-8-7------/
A/-5---5---5-------5--5---5---5-------5----/
E/-----------------------------------------/

La caida pierde altura por momentoooosss
e/-----------------------------------------/
B/-----------------------------------------/
G/-----------------------------------------/
D/---7---7---7-8-7------7---7---7-8-7------/
A/-5---5---5-------5--5---5---5-------5----/
E/-----------------------------------------/

e/------------------13-13-13-13-------------------/
B/-----10-10-10-10--------------8-8-8-8-----------/
G/---------------------------------------7-7-7-7--/ x2
D/------------------------------------------------/
A/------------------------------------------------/
E/------------------------------------------------/

El Templo del sol             estallo

e/-3--3----------3------------0--1-0-----------/
B/-3----3----------3----------1-----2----------/
G/-0------0----0-----0--------2----------------/
D/-0---------0----------------2----------------/
A/-2--------------------------0----------------/
E/-3-------------------------------------------/

nunca podre sabeer        si la cruz

e/-3-------------3-------------------------------/
B/-5--5------------5------------8--5-------8--5--/
G/-5----5------5-----5-------7-----------7-------/
D/-5------5----------------7-----------7---------/
A/-3---------3-----------------------------------/
E/-3---------------------------------------------/

es salvacioooooon

e/------------------13-13-13-13-------------------/
B/-----10-10-10-10--------------8-8-8-8-----------/
G/---------------------------------------7-7-7-7--/ x4
D/------------------------------------------------/
A/------------------------------------------------/
E/------------------------------------------------/

la casa iluminada espera a que alguien entre

e/-----------------------------------------/
B/-----------------------------------------/
G/-----------------------------------------/
D/---7---7---7-8-7------7---7---7-8-7------/
A/-5---5---5-------5--5---5---5-------5----/
E/-----------------------------------------/

el martirio inocente que siempre se ha de mal interpretar

e/-----------------------------------------/
B/-----------------------------------------/
G/-----------------------------------------/
D/---7---7---7-8-7------7---7---7-8-7------/
A/-5---5---5-------5--5---5---5-------5----/
E/-----------------------------------------/


e/------------------13-13-13-13-------------------/
B/-----10-10-10-10--------------8-8-8-8-----------/
G/---------------------------------------7-7-7-7--/ x2
D/------------------------------------------------/
A/------------------------------------------------/
E/------------------------------------------------/

El Templo del sol             estallo

e/-3--3----------3------------0--1-0-----------/
B/-3----3----------3----------1-----2----------/
G/-0------0----0-----0--------2----------------/
D/-0---------0----------------2----------------/
A/-2--------------------------0----------------/
E/-3-------------------------------------------/

nunca podre sabeer        si la cruz

e/-3-------------3-------------------------------/
B/-5--5------------5------------8--5-------8--5--/
G/-5----5------5-----5-------7-----------7-------/
D/-5------5----------------7-----------7---------/
A/-3---------3-----------------------------------/
E/-3---------------------------------------------/

es salvacioooooon

e/------------------13-13-13-13-------------------/
B/-----10-10-10-10--------------8-8-8-8-----------/
G/---------------------------------------7-7-7-7--/ x4
D/------------------------------------------------/
A/------------------------------------------------/
E/------------------------------------------------/


aqui se calla la guitarra y se queda de fondo el bajo la bateria
y voz


despues de eso entra esto

E /---------------13-12----------13---------------------13-
B /----------------------13---------13---------------------
G /--14~^---14/15-----------12~^-----------14~^---14/15----
D /--------------------------------------------------------
A /--------------------------------------------------------
E /--------------------------------------------------------


E /--12-------------------------------13-12----------13----
B /------13-------13-------------------------13---------13-
G /---------12~^---------14~^---14/15-----------12~^-------
D /--------------------------------------------------------
A /--------------------------------------------------------
E /--------------------------------------------------------


E /---------------13-12---------------
B /----------------------13-------13--
G /--14~^---14/15-----------12~^------
D /-----------------------------------
A /-----------------------------------
E /-----------------------------------

uoooooo oooo ooooooo uoooooo oooooooo
e/--------0-------------1-------------0---------1-----1---------/
B/----3-----3-------1-----1-------3-----3---------1-----1-------/
G/------2-----2-------3-----3-------2-----2---------3-----3-----/
D/--0-----------0-3-----------3-0-----------0-3-----------------/
A/--------------------------------------------------------------/
E/--------------------------------------------------------------/

La decadencia esta prohibida

e/-----------------------------------------/
B/-----------------------------------------/
G/-----------------------------------------/
D/---7---7---7-8-7------7---7---7-8-7------/
A/-5---5---5-------5--5---5---5-------5----/
E/-----------------------------------------/

la caida pierde altura

e/-----------------------------------------/
B/-----------------------------------------/
G/-----------------------------------------/
D/---7---7---7-8-7------7---7---7-8-7------/
A/-5---5---5-------5--5---5---5-------5----/
E/-----------------------------------------/

por momentos

e/------------------13-13-13-13-------------------/
B/-----10-10-10-10--------------8-8-8-8-----------/
G/---------------------------------------7-7-7-7--/
D/------------------------------------------------/
A/------------------------------------------------/
E/------------------------------------------------/

por momentos
e/------------------13-13-13-13-------------------/
B/-----10-10-10-10--------------8-8-8-8-----------/
G/---------------------------------------7-7-7-7--/
D/------------------------------------------------/
A/------------------------------------------------/
E/------------------------------------------------/
por momentos

e/------------------13-13-13-13-------------------/
B/-----10-10-10-10--------------8-8-8-8-----------/
G/---------------------------------------7-7-7-7--/
D/------------------------------------------------/
A/------------------------------------------------/
E/------------------------------------------------/

por momentooooooooooss
e/------------------13-13-13-13-------------------/
B/-----10-10-10-10--------------8-8-8-8-----------/
G/---------------------------------------7-7-7-7--/
D/------------------------------------------------/
A/------------------------------------------------/
E/------------------------------------------------/
Добавлено: 13.03.2012
Другие материалы по этой песне:
  • Аккорды и текст

Страница создана 13.03.2012
http://primanota.ru/heroes-del-silencio/dos-luces-chords.htm
Привет, Гость.
Предлагаем пройти революционный курс по гитаре.
Подарок от PrimaNota.Ru, забирай!