PrimaNota.ru - самый крупный в мире бесплатный архив песенных текстов, аккордов, табулатур и нот


Hermetica - Memoria De Siglos - текст песни, таба, бас-таба, видео

Регистрация Запомнить меня
Войти через:  Facebook Google Twitter Vk Yandex Mail.ru

Hermetica - Memoria De Siglos - текст песни, таба, бас-таба, видео

Печатать
Просмотров: 62
Уроки эстрадного вокала в Санкт-Петербурге
Solo completo

Intro:'2 Veses'
E--------------------------------------------------|------------------------------------------------||
B--------------------------------------------------|------------------------------------------------||
G--------------------------------------------------|------------------------------------------------||
D--------------------------------------------------|------------------------------------------------||
A-------7--9~~-9/10-~~-----7--9~/10~~-9-9h10p9-----|-----7--9~~-9/10-~~-----7--10/12~-10-9h10p9----||
E---0-7----------------0-7---------------------10--|-0-7----------------0-7---------------------10-||
Pm  . .                . .                           . .                . .
Puente: X1                 Riff 1:'4 Veses'
E--------------------------|--------------||----||
B--------------------------|--------------||----||
G--------------------------|--------------||----|| La 2° ves hace un
D-----12-12-11-9---7-7-----|----7-/-11--9-||-9~-|| Harmonico de pulgar
A--10-10-10-9--7-5-5-5-5-4-|----5-/-9---7-||----||
E--8-------------3-----3-2-|-0------------||----||
Pm                           .
Puente:X1                     Riff 1                                     Riff 1 Con Variación
E----------------------------|--------------||                          ||-------------------||
B----------------------------|--------------||                          ||-------------------||
G----------------------------|--------------|| Riff 1:'13 Veses y       ||-------------------||
D-------12-12-11-9---7-7-----|----7-/-11--9-||         Engancha Riff 2' ||---7-/-11--9-x-x-9-||
A-9--10-10-10-9--7-5-5-5-5-4-|----5-/-9---7-||                          ||---5-/-9---7-x-x-7-||
E-7--8-------------3-----3-2-|-0------------||                          ||-0-----------------||
Pm                             .                                           .
Riff 2:'3 veses'                           en el 1° riff 2 hace:    Y en el 2° Hace:
E---------------------------------|             |---------------||------------------||
B---------------------------------| Al terminar |---------------||------------------|| 'la segunda
G-*------------------------------*| el 1° y el  |---------------||------------------||   Guitarra'
D-*-5---5---5---7---7---7---7/9--*| 2° Riff 2   |--5-4---4-5-7--||--7-5-4--5-4------||
A---3-3-3-3-3-3-5-5-5-5-5-5-5/7---| Hace 2      |------7--------||--------7----7-5--||
E---------------------------------| Arreglos    |---------------||------------------||
Pm    .   .   .   .   .

Intro X1
Puente
Riff 1 (con variación) X7
Riff 1 X1

Riff 2 X3

Riff 3:                                          (Con Variación)
E---------------------------------------------|| ||-------------||
B---------------------------------------------|| ||-------------||
G---------------------------------------------|| ||---------12~-||
D-9-----9-----9-----9-----9-----9-----9-----9-|| ||-9----9--12~-||
A-7-7-7-7-7-7-7-7-7-7-7-7-7-7-7-7-7-7-7-7-7-7-|| ||-7--7--------||
E---------------------------------------------|| ||-------------||

Riff 2 X3
Riff 3 (con variación)X2
Riff 2 X3
Riff 3

Base del solo:
Riff 2 X3
Riff 3
Riff 2 X3
Riff 3

                       Todo con machaque:bien rapido
E---------------------|--------------------------------------------------------------------------|
B---------------------|--------------------------------------------------------------------------|
G---------------------|--------------------------------------------------------------------------|
D-----9-7-5-4---5-4---|---------------------------------------------9h10-------------------------|
A---7---------------7-|------------9-------9-10----9-10-12-9-10-12-------10-9-12-10-9h10---------|
E---------------------|-12-8-10-12---10-12------12---------------------------------------12-10-8-|
Pm              ...     ..........................................       .......................

E----------------------------------------------------------------------------
B------------------------------------------10/12-10---10---------------------
G-------9--11-12--11h12p11h12p11h12p11-9------------12---12-11-12~~~---11-12-
D-----9----------------------------------------------------------------------
A---7------------------------------------------------------------------------
E----------------------------------------------------------------------------


E-------------------------------------------------12b-14b-12-15-14-12-
B--------------------------------12b-10~-10-8-------------------------
G-11h12p1111h12p1111h12p11-9~~~~--------------11----------------------
D---------------------------------------------------------------------
A---------------------------------------------------------------------
E---------------------------------------------------------------------


E------------------------------------------------------|--------------
B---15-13-12----12-13-15-13-12----12-13-15-13-12-------|--------------
G------------14----------------14----------------12-14-|--------------
D------------------------------------------------------|--------------
A------------------------------------------------------|--------------
E------------------------------------------------------|--------------


E--------------------------------------|--------------------------------------|----------------|
B--------------------------------------|--------------------------------------|----------------|
G-----------------------------------9~-|----------------------------------11~-|-9~~~~-9h11-7~~-|
D-----------------------------------9~-|--------------------------------------|----------------|
A------------9-------9-10----9-10------|------------9-------9-10----9-10------|----------------|
E-12-8-10-12---10-12------12-----------|-12-8-10-12---10-12------12-----------|----------------|
Pm...............................

Riff 2 X3
Riff 3 (con variación)

Riff 2 (con Variación) X3
E------------------------------------------------||
B------------------------------------------------||
G------------------------------------------------||
D--5-----5-----5-----5-----7-----7-----7-----7/9-||
A--3-3-3-3-3-3-3-3-3-3-3-3-5-5-5-5-5-5-5-5-5-5/7-||
E------------------------------------------------||
Pm   . .   . .   . .   . .   . .   . .   . .

Riff 3
Solo 2: Usa las mismas esclas y tecnicas
Riff 2 (cv)
Riff 3 (cv)
Riff 2
Riff 3
Добавлено: 21.04.2016
Другие материалы по этой песне:

Страница создана 13.03.2012
http://primanota.ru/hermetica/memoria-de-siglos-chords.htm
Привет, Гость.
Предлагаем пройти революционный курс по гитаре.
Подарок от PrimaNota.Ru, забирай!