PrimaNota.ru - самый крупный в мире бесплатный архив песенных текстов, аккордов, табулатур и нот


Hermetica - Desterrando A Los Oscurantistas - текст песни, таба, бас-таба, видео

Регистрация Запомнить меня
Войти через:  Facebook Google Twitter Vk Yandex Mail.ru

Hermetica - Desterrando A Los Oscurantistas - текст песни, таба, бас-таба, видео

Печатать
Просмотров: 75
Intro:

e|-------------------------------------|
b|-------------------------------------|
g|---7---------------------------------|
d|-7-5--9/0-9/0-9/0--6-7-6-7--9-8-7-6--|
a|-5----7/0-7/0-7/0--4-5-4-5--7-6-5-4--|
E|-------------------------------------|

Riff 1:
Por temer...
e|------------------------------------------------------|
b|------------------------------------------------------|
g|-----------------------------------------7------------|
d|-6-----------7-------------9-------------5--9-8-7-6---|
a|-4-4-4-4-4-4-5-4-4-4-4-4-4-7-4-4-4-4-4-4----7-6-5-4---|
E|------------------------------------------------------|

Riff 2:
Guerra...
e|-----------------------------|
b|-----------------------------|
g|-----------------------------|
d|--9-------------12-11--7--9--|
a|--7-7-7-7-7-7-7-10--9--5--7--|
E|-----------------------------|

Riff 3:
Sigo en pie...
e|------------------------------------------------------------------------------|
b|------------------------------------------------------------------------------|
g|---------------------6-4---------------6~---------------------6-4-------------|
d|-4-----4-4-4-5-----------4-----4-4-4-5---4-----4-4-4-5------------7-----6-7-6-|
a|-2-2-2-2-2-2-3-3-3-3-----2-2-2-2-2-2-3---2-2-2-2-2-2-3-3-3-3-3----5-5-5-4-5-4-|
E|------------------------------------------------------------------------------|

Riff 4:
Mientras dice 'el destierro de los oscurantistas'
a|------------------------------------------------------------------------------|
b|------------------------------------------------------------------------------|
g|-------------------------------7----------------------------------------------|
d|-9-------7-9-------7-9-------7-5-9-------7-9-------7-9-------6-7-6-7--9-8-7-6-|
a|-7-7-7-7-5-7-7-7-7-5-7-7-7-7-5---7-7-7-7-5-7-7-7-7-5-7-7-7-7-4-5-4-5--7-6-5-4-|
E|------------------------------------------------------------------------------|


Solo: (Base)
e|--------------------------------------------------------------------|
b|--------------------------------------------------------------------|
g|--------------------------------------------------------------------|
d|-6-------7-4-------7-5-------7-9-------7-5-------7-4-7-2-7---7----7-|
a|-4-4-4-4-5-2-2-2-2-5-3-3-3-3-5-7-7-7-7-5-3-3-3-3-5-2-5-0-5-5-5-2--5-|
E|-----------------------------------------------------------3---0----|

e|-------------------|
b|-------------------|x4
g|-------------------|
d|-------------------|
a|--------5----------|
E|--3-2-3---3-2-3-0--|

a|-------------------------------------------------------|
b|-------------------------------------------------------|x2
g|-------------------------------------------------------|
d|-------------------------------------5---------5-4-3---|
a|-7---------5-4---------5-7---------5-3-3-3-3-3-3-2-1-7-|
E|-5-5-5-5-5-3-2-2-2-2-2-3-5-5-5-5-5-3-----------------5-|

Continua con riff 4
Final con 'E'
Добавлено: 28.04.2016
Другие материалы по этой песне:
  • Аккорды и текст

Страница создана 18.03.2012
http://primanota.ru/hermetica/desterrando-a-los-oscurantistas-chords.htm
Привет, Гость.
Предлагаем пройти революционный курс по гитаре.
Подарок от PrimaNota.Ru, забирай!