PrimaNota.ru - самый крупный в мире бесплатный архив песенных текстов, аккордов, табулатур и нот


Hermetica - Del Camionero - текст песни, таба, видео

Регистрация Запомнить меня
Войти через:  Facebook Google Twitter Vk Yandex Mail.ru

Hermetica - Del Camionero - текст песни, таба, видео

Печатать
Просмотров: 51
+Correción de ?el camionero? de German Deicas+
++++++++++++++++++++++++++++++++++++++++++++++
INTRO:
Em                       C#9        Em            G
e|--------0---------------4---------------0-------3---3---------|X3
B|----------0-----------4---4---------------0-----0-0---0----0--|
G|------------0-------6-------6-------------------0--------0----|
D|------2-----------6-----------6-------2---------0-------------|
A|----2-----------4-------------------2-----------2-------------|
E|--0-------------------------------0---------0-2-3-------------|
Intro como base:
Conduciendo mi camión
estoy viendo asomar el sol.
Respirando el amanecer,
las distancias intento vencer.
El insomnio de una noche sin luna,
G / D / Em
se va muriendo.
Y el día nace mostrando la ruta
G / D / Em 
que andaré.
Base:
   Em     E5  C5#           D5  E5    Em     E5 G5
e|----------------------------------+--------------------------|
B|----------------------------------+--------------------------|
G|--------/9~-----------------------+--------/9--12-12-12-12\--|
D|--2-----/9~----------------7---9--+--2-----/9--12-12-12-12\--|
A|--2-----/7~--4-4-4-4-4-4-4/5-5/7--+--2-----/7--10-10-10-10\--|
E|--0-0-0---------------------------+--0-0-0-------------------|
Se alimenta mi corazón,
del constante rugir del motor,
esforzándose por rodar
dieciocho ruedas sin lamentar.
D5 E5
En las horas del rural sacrificio,
G5 / F5# / Em
nos están viendo,
D5 Em G5 / F5#
como un sueño inalcanzable, perdiéndonos...
E5 / D5 / C5# / C5
Perdiéndonos
E5 A5#
en el constante llevar y traer
E5 A5#
pesadas cargas ganando el sustento.
E5 A5#
Conduciendo un camión
E5 A5#
yo me echo a pleno viviendo este sueño
C5# A5
Al que mi vida entregué,
C5# A5
como mi padre hizo ayer.
C5# A5 G5 B5
En él está mi felicidad, no necesito más
E5 A5#
por eso canto lo que siento, en un camión.
E5 / A5#
Mediodía en la ruta es
y yo intentando distancias vencer.
Pienso en los muchos que sabrán
MI canto guardar
Sólo de sentirse contentos en el camión
vivendo el sueño en el que estoy.

SOLO GUITARRA
e|-----------------------------------------------------------------------------------|
B|----------------------------------------7-8-10------10/(12)\10^8-10--8-7-8-8^7-5~--|
G|-----------------------------------------------9~----------------------------------|
D|-----9-7--------------------9---7-9-10---------------------------------------------|
A|--7------10-9--10^9^7---7-9--------------------------------------------------------|
E|-----------------------------------------------------------------------------------|
Y sigue...

Haciendo un alto al atardecer
bajo unos árboles, guachos de tiempo.
Junto a mi camión
nos ve descansar el campo abierto.

En las banquinas me enredé
y sólo mi camión lo sabe bien,
las rutas y su soledad
MI canto guardarán

Sólo para verme contento
en un camión viviendo el sueño.
Al que mi vida entregué
como mi padre hizo ayer
En el está mi felicidad, no necesito más
por eso canto lo que siento, en un camión.

Fin: [ E5 / D5 / C5# / C5 ]X4 Em

Se lo dedico a Celso Javier Martínez, quien me accedió atodas las placas
de Hermética y del Heavy Nacional.
Aguante Hermetica mierda!!
Добавлено: 23.03.2016
Другие материалы по этой песне:

Страница создана 23.02.2012
http://primanota.ru/hermetica/del-camionero-chords.htm
Привет, Гость.
Предлагаем пройти революционный курс по гитаре.
Подарок от PrimaNota.Ru, забирай!