PrimaNota.ru - самый крупный в мире бесплатный архив песенных текстов, аккордов, табулатур и нот


Hermetica - Deja De Robar - текст песни, таба, бас-таба, видео

Регистрация Запомнить меня
Войти через:  Facebook Google Twitter Vk Yandex Mail.ru

Hermetica - Deja De Robar - текст песни, таба, бас-таба, видео

Печатать
Просмотров: 63
DEJA DE  Y  1989
Riff1 y Intro:

e|-----------------+------------+----------------
B|-----------------+------------+----------------
G|-----------------+------------+----------------
D|--9-9-(7)-10--9--+--9-9-(7)-7-+----------------
A|--7-7-(5)-8---7--+--7-7-(5)-7-+--------5-7-5---
E|-----------------+------------+----5-7-------7-
                                   


Mientras quemo las hojas de mi encarnación,
e|-----------------------------------------------
B|----------------------------------------------- (escuchando el tema
G|-----------------------------------------------  se van a dar cuenta
D|----------------7--9------------------10-9-----  cuando cambia los
A|-2--------------5--7------------------8--7-----  tonos)
E|-0-0-0-0-0-0-0-------0-0-0-0-0-0-0-0-----------
     PM.........       ...............

estoy felíz de no ser parte de mi (¿flaboroso?) juego.
e|-------------------------------------------------------------
B|------------------------------------------------------------- 
G|-------------------------------------------------------------  
D|----------------7--9------------------10-9-------------------  
A|-2--------------5--7------------------8--7----------5-7-5--5-
E|-0-0-0-0-0-0-0--------0-0-0-0-0-0-0-0-----------5-7-------7--
     PM.........        ...............            

Ya no engañes con tu vicio de hablar por hablar,
e|-----------------------------------------------
B|----------------------------------------------- 
G|----------------------------------------------- 
D|----------------7--9------------------10-9----- 
A|-2--------------5--7------------------8--7----- 
E|-0-0-0-0-0-0-0-------0-0-0-0-0-0-0-0-----------
     ............      ...............

se que pretendes hacer moda nuestros sentimientos.
e|-----------------------------------------------
B|----------------------------------------------- 
G|----------------------------------------------- 
D|----------------7--9--------------------------- 
A|-2--------------5--7----------------5-7-5------ 
E|-0-0-0-0-0-0-0------------------5-7------7-----
      ..........

Sobre Riff1:
Deja de robar ganate tu pan,
o es que nada más puedes tu hacer.


Igual a 1er estrofa
El metal tiene su historia y la madera también,
pero el plástico que vistes es evidencia que no existes.
En el cemento de las ratas no me encontraras,
estoy quemando combustibles sobre rutas desiertas.


Riff1
Por tu falsedad, no me dentré
ni me alcanzaras con tu estupidez


INTER x3
e|---------------------------------------------------
B|---------------------------------------------------
G|---------------------------------------------------
D|------6--5--6-------7--6--5------------------------
A|-2-2--4--3--4--2-2--5--4--7---(4)------------------
E|-0-0-----------0-0------------(2)------------------


 F#5 / C5 /
De quien destruye el cielo eres servidor,
 G5 / D5 /
el vaciamiento esta en vos,
 F#5 / C5 /
los tuyos se enredaron por eso no estan
 G5 / D5 /
luchando aun por el METAL, por el METAL.


SOLO DEL TANO ROMANO || 2DA GUITARRA:RIFF1

e|-11/(12)--10-12--15-----
B|------------------------
G|------------------------
Y SIGUE...


Sobre Riff1:
Deja de robar ganate tu pan,
o es que nada más puedes tu hacer.


Saludos al Javi, el es el que me hizo METALERO.
Aguante Hermética, Almafuerte, Malón, V8, Aonikenk(Cutral Co)

V8 NO MURIO - HERMÉTICA TAMPOCO
Добавлено: 21.04.2016
Другие материалы по этой песне:

Страница создана 04.03.2012
http://primanota.ru/hermetica/deja-de-robar-chords.htm
Привет, Гость.
Предлагаем пройти революционный курс по гитаре.
Подарок от PrimaNota.Ru, забирай!