PrimaNota.ru - самый крупный в мире бесплатный архив песенных текстов, аккордов, табулатур и нот


Hermetica - Cuando Duerme La Ciudad - текст песни, таба, бас-таба, видео

Регистрация Запомнить меня
Войти через:  Facebook Google Twitter Vk Yandex Mail.ru

Hermetica - Cuando Duerme La Ciudad - текст песни, таба, бас-таба, видео

Печатать
Просмотров: 62
Intro:
xxxEm/A5xxE5/D5#/B5/D5/C5/A5xxxxxEm/A5 /A5/G5#/E5/E5#/G5
e|----------------------------+-------------------------------|
B|----------------------------+-------------------------------|
G|----------------------------+---------9-8-------------------|
D|---------9--8-----7--5--2---+---------7-6--9--10--12--------|
A|-----7---7--6-----5--3--0---+-----7--------7--8---10--8^7---|
E|--0--5---------7------------+--0--5-------------------------|


xxxEm/A5xxE5/D5#/B5/D5/C5/A5xxxxxEm/A5 /A5/G5#/E5/E5#/G5
e|----------------------------+-------------------------------|
B|----------------------------+-------------------------------|
G|----------------------------+---------9-8-------------------|
D|---------9--8-----7--5--2---+---------7-6--9--10--12--------|
A|-----7---7--6-----5--3--0---+-----7--------7--8---10--8^7---|
E|--0--5---------7------------+--0--5-------------------------|


xxxxE/A5xxxxxxxE5#/E5xxxxA5/G5#/A5xxxxxE5#/E5xxxxxxxxxxxxxE5#/E5/D5/C5#
e|---------------------------------------------------------------------|
B|---------------------------------------------------------------------|
G|---------------------------------------------------------------------|
D|--------7-6--10-9----------------7-6--10-9------10-9--7-6--10-9-7-6--|
A|-----7-------8--7-------7-6---7-------8--7-----------------8--7-5-4--|
E|--0--5------------10-9--5-4-0-5-------------8-7----------------------|


E5/G5 A5/F5 E/D/C/B/A# D/F... 
e|----------------------------------------------------------------------------------|
B|----------------------------------------------------------------------------------|
G|----------------------------------------------------------------------------------|
D|--9-12-12/14-10--10-9-7-5-4-3--7-10--9/10\9-------------7--5-5/9--------7--5-5/9--|
A|--7-10-10/12-8---8--7-5-3-2-1--5-8---7/8-\7-7-7~--3-3-3-5--3-3/7--3-3-3-5--3-3/7--|
E|--------------------------------------------5-5~----------------------------------|


e|-----------------------+------------------------------------------------------|
B|-----------------------+------------------------------------------------------|
G|-----------------------+--5-------------------------------5-------------------|
D|--------7--5-9-7-5-4-2-+----7-------------------------------7--------5-8-7-5--|
A|--3-3-3-5--3-7-5-3-2-0-+------7---7--10-8~---8-8--8-8--7~-----7---7--3-6-5-3--|
E|-----------------------+--------8-5--8--6~---6-6--6-6--5~-------8-5-----------|

A5 D5
La ciudad dormida y él anda aun,
G5 A5
buscando un amigo que no se abra de piernas.
D5 E5 D5 E5
Las patrullas, sé, no lo dejarán,
D5 / E5 / D5 / C5 / B5 / A5
porque para eso allí están.


A5 C5/A5#
e|---------------------|
B|---------------------|
G|--5------------------|
D|----7------7---10-8--|
A|------7----7---10-8--|
E|--------8--5---8--6--|


A5# A5
El vecindario que le sonrió de niño,
D5# A5
lo denunció por verlo muy despreocupado.
A5# A5
Y al no querer herir a quien lo trajo a vida,
G5 F5 Em
anda por la ciudad dormida sin lugar donde parar.

A5

A5 C5/A5#
e|---------------------|
B|---------------------|
G|--5------------------|
D|----7------7---10-8--|
A|------7----7---10-8--|
E|--------8--5---8--6--|

A5# A5
Reformatorios policiales son el sitio
D5# A5
donde condenan al menor no reclamado.
A5# A5
La sociedad lo adopta como hijo de puta,
G5 F5 Em
por eso escapa de la yuta cuando duerme la ciudad.

Final: repite varias veces y fade out.
e|----------------------------+------------------------------|
B|----------------------------+------------------------------|
G|----------------------------+---------9-8------------------|
D|---------9--8-----7--5--2---+---------7-6--9--10--12-------|
A|-----7---7--6-----5--3--0---+-----7--------7--8---10--8^7--|
E|--0--5---------7------------+--0--5------------------------|
Добавлено: 28.04.2016
Другие материалы по этой песне:
  • Аккорды и текст

Страница создана 17.05.2012
http://primanota.ru/hermetica/cuando-duerme-la-ciudad-chords.htm
Привет, Гость.
Предлагаем пройти революционный курс по гитаре.
Подарок от PrimaNota.Ru, забирай!