PrimaNota.ru - самый крупный в мире бесплатный архив песенных текстов, аккордов, табулатур и нот


Hermetica - Craneo Candente - текст песни, таба, бас-таба, видео

Регистрация Запомнить меня
Войти через:  Facebook Google Twitter Vk Yandex Mail.ru

Hermetica - Craneo Candente - текст песни, таба, бас-таба, видео

Печатать
Просмотров: 54
Intro:
|--------------------------------------------------------|
|--------------------------------------------------------|
|--------------------------------------------------------|
|-------------------9-----9------------------10-10-9-7---|
|-------------------7--9--7--9----------------8--8-7-5---|
|---0--0-0-0--0-0-0----7-----7-0--0-0-0--0-0-0-----------|

|--------------------------------------------------------------| 
|--------------------------------------------------------------|
|--------------------------------------------------------------|
|--------------------9-----9-----------------------------8-----| x2
|--------------------7--9--7--9-----------------8--9--8--6-----|
|---0--0-0-0--0-0-0-----7-----7-0--0-0-0--0-0-0-6--7--6--------|


|-----------------------------------------------|
|-----------------------------------------------|
|-----------------------------------------------| x3
|---------12-------11--------10--------9--------|
|---------10--------9---------8--------7--------|
|---0-0-0----0-0-0-----0-0-0----0-0-0-----------|


|----------------------------------------------------------|
|----------------------------------------------------------|
|----------------------------------------------------------|
|--------12-------11---------------------------------------|
|--------10-------9--------8-7-5--------8-7-5-----------5--|
|--0-0-0----0-0-0----8-7-5--------8-7-5---------8-7-5---3--|

Riff 1
|----------------------------------------------------------------------|
|----------------------------------------------------------------------|
|----------------------------------------------------------------------|
|---------9-----9/10-------9---7-10-------9-----9/10-------9-------9---|
|---------7-----7/-8-------7---5--8-------7-----7/-8-------7-------7---|
|---0-0-0---0-0------0-0-0----------0-0-0---0-0------0-0-0---8-7-5-----|


Riff 2
|-------------------------------------------------------------------------------------------------|
|-------------------------------------------------------------------------------------------------|
|-------------------------------------------------------------------------------------------------| x2
|-----------------------10--7---------------------------------------------------------------------|
|---9--------------------8--5--5-5-5--5-5-5--5-5-5--9--------------------10--------------------7--|
|---7--7-7-7--7-7-7--7-7----------------------------7--7-7-7--7-7-7--7-7--8--5-5-5--5-5-5--5-5-5--|

Riff 3
|----------------------------------------------------------------------------------|
|----------------------------------------------------------------------------------|
|----------------------------------------------------------------------------------|
|--9--9--9/10---10--7--7----10---9--6---------9--9--9/10--10---7--7-10--9----------|
|--7--7--7/-8----8--5--5-----8---7--4---------7--7--7/-8---8---5--5-8---7----------|
|-------------------------------------8-7-5-0-----------------------------8-7-5-0--|


|--------------------------------------------------------------------------------------|
|--------------------------------------------------------------------------------------|
|--------------------------------------------------------------------------------------|
|--9--9--9/10--10---9--7---10--9--5---------9--9--9/10---------------------------------|
|--7--7--7/-8---8---7--5----8--7--3---------7--7--7/-8---------------------------------|
|-----------------------------------8-7-5-0------------8-7-5-8-7-5-8-2-8-7-5-8-7-5-2---|

Riff 4
|-----------------------------------------------------------------|
|-----------------------------------------------------------------| 
|-----------------------------------------------------------------|
|---------------------------------------5------5------5--4--(7)---|
|--4--------------------4------4--------3--3-3-3--3-3-3--2--(5)---|Primero termina 
|--2--2-2-2--2-2-2--2-2-2--2-2-2--2-2-2---------------------------|con Si,despues con Re.

Intro
Por tu muerte!!
Riff 1
Esquivando patrullas 
de la noche enferma,
tibio amanecer en las llanuras,
sostenido en piernas.
Bajo el sol mi craneo candente
busco comprender,
y los registros del tiempo pasado
desvelar mi mente.
Riff 2
Vivo el destierro del hombre nativo
bajo las grises magias conquistantes.
Que aun prosiguen traficando el miedo
como ayer gauchos al desierto.
Riff 3
Despierto en los caminos 
de la tierra muerta.
Me observo junto a mis hermanos
harto de miserias 
y despojados de todo derecho
por el blanco imperio.
Riff 2
Que en el destierro del hombre nativo 
ha cultivado el culto del gran miedo.
Que aun prosiguen atrofiando vidas
como en la astuta guerra de malvinas.
Riff 3
Mi craneo candente,
busco comprender.
No estaba vacio,
mi craneo candente.
Riff 4
Miles de inmigrantes 
conforman la ciudad.
Han mutado al indio,
quitando su lugar.
Sembraron la muerte, 
por toda la extensión
de esta tierra infecta
sin sentido y sin razón
Добавлено: 23.03.2016
Другие материалы по этой песне:

Страница создана 13.05.2012
http://primanota.ru/hermetica/craneo-candente-chords.htm
Привет, Гость.
Предлагаем пройти революционный курс по гитаре.
Подарок от PrimaNota.Ru, забирай!