PrimaNota.ru - самый крупный в мире бесплатный архив песенных текстов, аккордов, табулатур и нот


Hermans Hermits - Jezebel - аккорды и текст, видео

Регистрация Запомнить меня
Войти через:  Facebook Google Twitter Vk Yandex Mail.ru

Hermans Hermits - Jezebel - аккорды и текст, видео

Печатать
Просмотров: 114
Jezebel
Hermans Hermits
-------------------------------------------------------------------------------
			    Jezebel - Herman's Hermits
			         (Wayne Shanklin)
-------------------------------------------------------------------------------Tuning:EADGBE

Opening riff:
e|--------------------------------------------------------------------------5-|
B|------5----5---5---5---5----6-----6----8-----6-----5----3---2----3-----5--5-|
G|---6----------------------------------------------------------------------6-|
D|-7------------------------------------------------------------------------7-|
A|--------------------------------------------------------------------------7-|
E|--------------------------------------------------------------------------5-|

A                   Em7
If ever a devil was born
A                   Em7
without a pair of horns
A
it was you
Bb              A
Jezebel it was you

A                  Em7
if ever a pair of eyes
A             Em7 
promised paradise
A
it was you
Bb               A       Bb9 Bb7 A
Jezebel  it was you

A7         D7       Am7
if ever a devil's plan
D                   Am7 
was made to torment man,
D7               C7         Bb7        A
deceiving me, grieving me, leaving me blue

Jezebel it was you


if ever a devil was born 
without a pair of horns 
it was you
Jezebel it was you


if ever a pair of eyes 
promised paradise
it was you
Jezebel it was you

if ever a devil's plan 
was made to torment man,
deceiving me, grieving me, leaving me blue,
Jezebel it was you

A          Em7       Bb                   A
Better had I never known a lover such as you
            Bb
forsaking dreams and all
          C                   A7    A
for the siren's call of your charms
Bb   A
Jezebel

if ever a devil's plan was made to torment man
deceiving me, grieving me, leaving me blue
Jezebel it was you

A          Em7
night and day
       A
every way
     Bb
oh Jezebel
  C
Jezebel
  A
Jezebel





************************************
                       

      
Добавлено: 03.05.2012
Другие материалы по этой песне:
  • Аккорды и текст

Страница создана 03.05.2012
http://primanota.ru/hermans-hermits/jezebel-chords.htm
Привет, Гость.
Предлагаем пройти революционный курс по гитаре.
Подарок от PrimaNota.Ru, забирай!