PrimaNota.ru - самый крупный в мире бесплатный архив песенных текстов, аккордов, табулатур и нот


Hermans Hermits - Dream On - бас-таба, видео

Регистрация Запомнить меня
Войти через:  Facebook Google Twitter Vk Yandex Mail.ru

Hermans Hermits - Dream On - бас-таба, видео

Печатать
Просмотров: 110
Dream On
Herman's Hermits
Written by Gary Gordon; released as the B-side to "Wonderful World" in the 
UK and to "Mrs. Brown You've Got A Lovely Daughter" in the USA.

Intro:
G|------- ------- ------- -------|------- ------- ------- -------|
D|-------------------------------|-------------------------------|
A|-------------------------------|-------------------------------|
E|-------------------------------|-------------------------------|
  (drums)


G|------- ------- 2---2-- ----2--|------- ------- ------- -------|
D|-------------------------------|3-----------3---5---5----------|
A|3------------------------------|------------------------7---5--|
E|-------------------------------|-------------------------------|



G|------- ------- 2---2-- ----2--|------- ------- ------- -------|
D|-------------------------------|3-----------3---5---5----------|
A|3-----------3------------------|------------------------7p5----|
E|-------------------------------|-------------------------------|


Verse:
G|------- ------- 2------ -------|------- ------- ------- -------|
D|-------------------------------|3-----------3---5---5----------|
A|3-----------3------------------|----------------------------7\5|
E|-------------------------------|-------------------------------|
  Your    pretty  face                came into view, and then


G|------- ------- 2---2-- -------|------- ------- ------- -------|
D|-------------------------------|3-----------3---5-------5------|
A|3-----------3------------------|-------------------------------|
E|-------------------------------|-------------------------------|
  what    could I do,                 my  dream began a - gain,


G|------- ------- ------- -------|------- ------- ------- -------|
D|3-----------4---5---5---5---4--|3-----------4---5---5---5---2--|
A|-------------------------------|-------------------------------|
E|-------------------------------|-------------------------------|
  So      here I  go              in  -   to  a world where I can


G|------- ------- 2---2-- -------|------- ------- ------- -------|
D|-------------------------------|3---3--------------------------|
A|3-----------3------------------|--------5---3------------------|
E|-------------------------------|-------------------------------|
          dream   on          just thinkin' of you,   I've got to


G|------- ------- 2---2-- ----2--|------- ------- ------- -------|
D|-------------------------------|3---3--------------------------|
A|3-----------3------------------|--------5---3------------------|
E|-------------------------------|-------------------------------|
          dream   on,             all I   can do.
                              that's
Verse:
G|------- ------- 2---2-- ----2--|------- ------- ------- -------|
D|-------------------------------|3-----------3---5---5----------|
A|3-----------3------------------|------------------------7---5--|
E|-------------------------------|-------------------------------|
  Now     that you know                   how I  feel for you, it


G|------- ------- 2---2-- ----2--|------- ------- ------- -------|
D|-------------------------------|3-----------3---5---5-------4--|
A|3-----------3------------------|-------------------------------|
E|-------------------------------|-------------------------------|
  just    goes to show                    I'll be true to you,


G|------- ------- ------- -------|------- ------- ------- -------|
D|3-----------4---5---5---5---4--|3-----------4---5---5---5---2--|
A|-------------------------------|-------------------------------|
E|-------------------------------|-------------------------------|
  So      here I  go              in  -   to  a world where I can


G|------- ------- 2------ ----2--|------- ------- ------- -------|
D|-------------------------------|3---3--------------------------|
A|3-----------3------------------|--------5---3------------------|
E|-------------------------------|-------------------------------|
          dream   on          just thinkin' of you,   I've got to


G|------- ------- 2------ ----2--|------- ------- ------- -------|
D|-------------------------------|3---3--------------------------|
A|3-----------3------------------|--------5---3------------------|
E|-------------------------------|-------------------------------|
          dream   on,             all I   can do.            'Cause
                              that's
Bridge:
G|------- ------- ------- -------|------- ------- ------- -------|
D|3-----------3-----------3---4--|5-----------5-------5---5---4--|
A|----------------3--------------|----------------5--------------|
E|-------------------------------|-------------------------------|
  if      you     want    me      by      your side,  you've got to


G|------- ------- ------- -------|------- ------- ------- -------|
D|3-----------3-------2---3---4--|5-----------5-------5---5---4--|
A|----------------3--------------|----------------5--------------|
E|-------------------------------|-------------------------------|
  hold    your    hands       a - cross   the sky,


G|------- ------- ------- -------|------- ------- ------- -------|
D|3-----------3-------2---3---4--|5-----------5-------5---5------|
A|----------------3--------------|----------------5--------------|
E|-------------------------------|-------------------------------|
  Tread   the     stair - way     through the stars   in- to your


G|------- ------- ------- -------|------- ------- ------- -------|
D|7-----------7---7--------------|5---5---3---3---2---2----------|
A|-------------------------------|------------------------5---5--|
E|-------------------------------|-------------------------------|
  arms,               in- to  your arms.

Verse:
G|------- ------- 2---2-- ----2--|------- ------- ------- -------|
D|-------------------------------|3-----------3---5---5----------|
A|3-----------3------------------|------------------------7---5--|
E|-------------------------------|-------------------------------|
  Your    pretty  face                came into view, and then


G|------- ------- 2---2-- ----2--|------- ------- ------- -------|
D|-------------------------------|3-------3-------5---5---5---5--|
A|3-----------3------------------|-------------------------------|
E|-------------------------------|-------------------------------|
  what    could I do,                 my  dream began a - gain,


G|------- ------- ------- -------|------- ------- ------- -------|
D|3-----------4---5---5---5---4--|3-----------4---5---5---5---4\2|
A|-------------------------------|-------------------------------|
E|-------------------------------|-------------------------------|
  So      here I  go              in  -   to  a world where I can


G|------- ------- 2---2-- -------|------- ------- ------- -------|
D|-------------------------------|3---3--------------------------|
A|3-----------3------------------|--------5---3------------------|
E|-------------------------------|-------------------------------|
          dream   on          just thinkin' of you,   I've got to


G|------- ------- 2---2-- -------|------- ------- ------- -------|
D|-------------------------------|3---3--------------------------|
A|3-----------3------------------|--------5---3------------------|
E|-------------------------------|-------------------------------|
          dream   on,             all I   can do.            'Cause
                              that's
Bridge:
G|------- ------- ------- -------|------- ------- ------- -------|
D|3-----------3-----------3---4--|5-----------5-------5---5---4--|
A|----------------3--------------|----------------5--------------|
E|-------------------------------|-------------------------------|
  if      you     want    me      by      your side,  you've got to


G|------- ------- ------- -------|------- ------- ------- -------|
D|3-----------3-------2---3---4--|5-----------5-------5---5---4--|
A|----------------3--------------|----------------5--------------|
E|-------------------------------|-------------------------------|
  hold    your    hands       a - cross   the sky,


G|------- ------- ------- -------|------- ------- ------- -------|
D|3-----------3-------2---3---4--|5-----------5-------5---5---5--|
A|----------------3--------------|----------------5--------------|
E|-------------------------------|-------------------------------|
  Tread   the     stair - way     through the stars   in- to your


G|------- ------- ------- -------|------- ------- ------- -------|
D|7-----------7---7--------------|5---5---3---3---2---2----------|
A|-------------------------------|------------------------5------|
E|-------------------------------|-------------------------------|
  arms,               in- to  your arms.

Verse:
G|------- ------- 2---2-- -------|------- ------- ------- -------|
D|-------------------------------|3-----------3---5---5----------|
A|3-----------3------------------|------------------------7---5--|
E|-------------------------------|-------------------------------|
  Your    pretty  face                came into view, and then


G|------- ------- 2---2-- ----2--|------- ------- ------- -------|
D|-------------------------------|3-----------3---5-------5---4--|
A|3-----------3------------------|-------------------------------|
E|-------------------------------|-------------------------------|
  what    could I do,                 my  dream began a - gain,


G|------- ------- ------- -------|------- ------- ------- -------|
D|3-----------4---5---5---5---4--|3-----------4---5---5---5---2--|
A|-------------------------------|-------------------------------|
E|-------------------------------|-------------------------------|
  So      here I  go              in  -   to  a world where I can


G|------- ------- 2------ ----2--|------- ------- ------- -------|
D|-------------------------------|3---3--------------------------|
A|3-----------3------------------|--------5---3------------------|
E|-------------------------------|-------------------------------|
          dream   on          just thinkin' of you,   I've got to


G|------- ------- 2------ -------|------- ------- ------- -------|
D|-------------------------------|3---3--------------------------|
A|3-----------3------------------|--------5---3------------------|
E|-------------------------------|-------------------------------|
          dream   on,             all I   can do,     I've got to
                              that's
Outro:
G|------- ------- 2------ ----2--|------- ------- ------- -------|
D|-------------------------------|3---3--------------------------|
A|3-----------3------------------|--------5---3------------------|
E|-------------------------------|-------------------------------|
          dream   on          just thinkin' of you,   I've got to...
fade out...

Please e-mail me for any corrections, or write a comment.
Добавлено: 08.07.2012
Другие материалы по этой песне:
  • Аккорды и текст

Страница создана 08.07.2012
http://primanota.ru/hermans-hermits/dream-on-chords.htm
Привет, Гость.
Предлагаем пройти революционный курс по гитаре.
Подарок от PrimaNota.Ru, забирай!