PrimaNota.ru - самый крупный в мире бесплатный архив песенных текстов, аккордов, табулатур и нот


Herman Brood - Dope Sucks - таба, видео

Регистрация Запомнить меня
Войти через:  Facebook Google Twitter Vk Yandex Mail.ru

Herman Brood - Dope Sucks - таба, видео

Печатать
Просмотров: 118
Уроки эстрадного вокала в Санкт-Петербурге
Intro

E-------------------------------------------------------|
B-------------------------------------------------------|
G-------------------------------------------------------|
D----5~--5-3--------------5-x-5-x-5-x-5~--5-3-----------|
A-------------5-4-3---------------------------5-4-3-----|
E--------------------6-3----------------------------6-3-|

E--------------------------------------------------------|
B---------------------3b---------------3b----------------|
G---------------------3b---------------3b----------------|
D------5-x-5-x-5-x-5-----5-3h5--5-3-5------5-3h5--5-3-5--|
A--------------------------------------------------------|
E--------------------------------------------------------|


E----------------------------------------------------------|
B-----3b---3b---3b---3b---3b-3b---3b-3b---3b-3b----3b--3b--|
G-----3b---3b---3b---3b---3b-3b---3b-3b---3b-3b----3b--3b--|
D-5-5----5----5----5----5-------5-------5--------5---------|
A----------------------------------------------------------|
E----------------------------------------------------------|

E--------------------------------|
B--------------------------------|
G---------------------------5-5--|
D--5-5-5-5-5-5-5-5-5-5-5-5--5-5--|  x 4
A--5-5-5-5-5-5-5-5-5-5-5-5--3-3--|
E--3-3-3-3-3-3-3-3-3-3-3-3-------|

verse & refrain


E--------------------------------|
B--------------------------------|
G---------------------------5-5--|
D--5-5-5-5-5-5-5-5-5-5-5-5--5-5--|  x 3
A--5-5-5-5-5-5-5-5-5-5-5-5--3-3--|
E--3-3-3-3-3-3-3-3-3-3-3-3-------|

E----------------------------------------------------------|
B----------------------------------------------------------|
G----------------------------------------------------------|
D5-5-5-5-5-5-5-5-5-5-5-5--6-8--8-8-8-8-8-8-8-8-8-8-8-8-9-10|

A5-5-5-5-5-5-5-5-5-5-5-5--6-8--8-8-8-8-8-8-8-8-8-8-8-8-9-10|
E3-3-3-3-3-3-3-3-3-3-3-3--4-6--6-6-6-6-6-6-6-6-6-6-6-6-7-8-|

E--------------------------------------------|
B--------------------------------------------|
G--------------------------------10-8--------|
D--10-10-10-10-10-10-10-10-10-10-10-8-8--10--|
A--10-10-10-10-10-10-10-10-10-10-8--6-8--10--|  x 2
E--8--8--8--8--8--8--8--8--8--8-------6--8---|


E------------------------------------------------------------------------|
B------------------------------------------------------------------------|
G--------------------------------10-8------------------------------------|
D--10-10-10-10-10-10-10-10-10-10-10-8-8--12-12-12-12-12-12-12-12-12-12-12|
A--10-10-10-10-10-10-10-10-10-10-8--6-8--12-12-12-12-12-12-12-12-12-12-12|
E--8--8--8--8--8--8--8--8--8--8-------6--10-10-10-10-10-10-10-10-10-10-10|


(back to start verse & refrain)

Chorus

E-----------------------------------------------------|
B-----------------------------------------------------|
G-NO GUITAR----9--9--9-9---9-x-9---7/9--9--9-9--9-x-9-|
D--------------9--9--9-9---9-x-9---7/9--9--9-9--9-x-9-|  x 2
A--------------7--7--7-7---7-x-7---5/7--7--7-7--7-x-7-|
E-----------------------------------------------------|

(back to start verse & refrain)


great song!
enjoy!

Michel de Bruyn
Добавлено: 18.04.2012
Другие материалы по этой песне:
  • Аккорды и текст

Страница создана 18.04.2012
http://primanota.ru/herman-brood/dope-sucks-chords.htm
Привет, Гость.
Предлагаем пройти революционный курс по гитаре.
Подарок от PrimaNota.Ru, забирай!