PrimaNota.ru - самый крупный в мире бесплатный архив песенных текстов, аккордов, табулатур и нот


Here Comes The Kraken - Miss Starving Skeleton - таба, видео

Регистрация Запомнить меня
Войти через:  Facebook Google Twitter Vk Yandex Mail.ru

Here Comes The Kraken - Miss Starving Skeleton - таба, видео

Печатать
Просмотров: 158
-------------------------------------------------------------------------------
                 Miss Starving Skeleton - Here Comes The Kraken 
-------------------------------------------------------------------------------


Tabbed by: Zeusimo
Myspace - http://myspace.com/jessei_f
Youtube - http://www.youtube.com/zeusimo
Twitter - http://twitter.com/zeusimo
Ultimate-Guitar - http://profile.ultimate-guitar.com/zeusimo/

Tuning: Drop C (C-G-C-F-A-D)

Just Guitar 2 I Will Upload Guitar 1 One I Buy Some Headphones
If You Find An Error Pease Tell Me
Enjoy This Shit XD

Guitar 2
D|-----------------------------------------------|
A|-----------------------------------------------|
F|-----------------------------------------------|
C|-----------------------------------------------|
G|6h9-8h11-t9pt13pt12pt9p----13-12-10----12-11-9-|
C|------------------------00----------00---------|
                          ..          ..

Guitar 2
D|-----------------------------------------------|
A|-----------------------------------------------|
F|-----------------------------------------------|
C|-----------------------------------------------|
G|6h9-8h11-t9pt13pt12pt9p----13-12-10----12-9h11-|
C|------------------------00----------00---------|
                          ..          ..

Guitar 2
D|-------------------------|
A|-------------------------|
F|-------------------------|
C|-------------------3-3-3-|
G|13-12-10-8-9-10-12-3-3-3-|
C|-------------------3-3-3-|
                     . . .

Guitar 2                                        x2
D|-----------------------------------------------|
A|-----------------------------------------------|
F|-----------------------------------------------|
C|-----------------------------------------------|
G|6h9-8h11-t9pt13pt12pt9p----13-12-10----12-11-9-|
C|------------------------00----------00---------|
                          ..          ..

Guitar 2
D|---------------------------------------------------|
A|---------------------------------------------------|
F|---------------------------------------------------|
C|5-------5------------------------------------------|
G|5-8-7-5-5-12\----7-8----8-7-5-7----7-8----87578785-|
C|5-------5-12\-55-----55---------55-----55----------|
          .     ..     ..         ..     .. ........

Guitar 2
D|----------------|
A|------------5h8-|
F|--------5h7-----|
C|----5h8---------|
G|5h7-------------|
C|----------------|

Guitar 2
D|---------------------------------|
A|---------------------------------|
F|---------------------------------|
C|7-------5-------7-------8--------|
G|7-9-8-6-5-8-7-5-7-9-8-6-8-10-9-7-|
C|7-------5-------7-------8--------|

Guitar 2
D|-----------------------------------------------|
A|-----------------------------------------------|
F|-----------------------------------------------|
C|7----------------------------------------------|
G|7-9-8p6-8h10-11-10p8-10h12-12-11p9-11h13-5-6h8-|
C|7----------------------------------------------|

Guitar 2
D|------------------------------------|
A|13-12-10--------------------9-10h12-|
F|---------13-12-10-8-9-10-12---------|
C|------------------------------------|
G|------------------------------------|
C|------------------------------------|

Guitar 2
D|------------------------------------------------------|
A|------------------------------------------------------|
F|------------------------------------------------------|
C|0--00000-0000000000-00000-0000000000-00000-0000000000-|
G|0--00000-0000000000-00000-0000000000-00000-0000000000-|
C|0--00000-0000000000-00000-0000000000-00000-0000000000-|
     ..... .......... ..... .......... ..... ..........

Guitar 2
D|------------------------------------------------|
A|------------------------------------------------|
F|------------------------------------------------|
C|00000-000000-/8-7-5-7p4h7p4h7p4h7p4h7p4h7p4h7p4-|
G|00000-000000------------------------------------|
C|00000-000000------------------------------------|
  ..... ......

Guitar 2
D|-----------------------------------------------------------------|
A|-----------------------------------------------------------------|
F|-----------------------------------------------------------------|
C|00000-0000000000-00000-000000-/8-7-5-7p4h7p4h7p4h7p4h7p4h7p4h7p4-|
G|00000-0000000000-00000-000000------------------------------------|
C|00000-0000000000-00000-000000------------------------------------|
  ..... .......... ..... ......

Guitar 2
D|------------------------------------|
A|------------------------------------|
F|------------------------------------|
C|00000-0000000000-00000-00000000-5-5-|
G|00000-0000000000-00000-00000000-5-5-|
C|00000-0000000000-00000-00000000-5-5-|
  ..... .......... ..... ........ . .

Guitar 2
D|----------------------------------------------|
A|----------------------------------------------|
F|----------------------------------------------|
C|--5-6-7-10101010101010101010---10-8-7---8-7-5-|
G|8----------------------------8-------8--------|
C|----------------------------------------------|

Guitar 2
D|------------------------------------------------|
A|------------------------------------------------|
F|------------------------------------------------|
C|--5-6-7-10101010101010101010---10-8-7---8-7-(5)-|
G|8----------------------------8-------8----------|
C|------------------------------------------------|

Guitar 2                                  x2
D|-----------------------------------------|
A|-----------------------------------------|
F|-----------------------------------------|
C|----------------(5)--------------3h4-2h3-|
G|-----7-8--7-8-5----------7-8-3h4---------|
C|1010----------------1010-----------------|
  . .                 . .

Guitar 2
D|--------------------------------------------|
A|--------------------------------------------|
F|--------------------------------------------|
C|-------------2h3-3h4-4h5--------------------|
G|-----7-8-3h4------------------7-8-7-8-5-(3)-|
C|1010---------------------1010---------------|
   . .                      . .

Guitar 2
D|-----------------------------------|
A|-----------------------------------|
F|-----------------------------------|
C|---------------(5)-----3h4-4h5-2h3-|
G|-----7-8-7-8-5-----3h4-------------|
C|1010-------------------------------|
   . .

Guitar 2                   x4
D|--------------------------|
A|--------------------------|
F|-------------------7------|
C|------5-----7-9-10---10-9-|
G|5-7-8---8-7---------------|
C|--------------------------|
  . . .       . .  .

Guitar 2
D|---------------------|
A|---------------------|
F|---------------------|
C|0-0-0-8-8-8-10-10-10-|
G|0-0-0-8-8-8-10-10-10-|
C|0-0-0-8-8-8-10-10-10-|

Guitar 2                           x2
D|----------------------------------|
A|----------------------------------|
F|----------------------------------|
C|----------------------------------|
G|---13---12---10---8---9---10---12-|
C|77----7----7----7---7---7----7----|
  ..    .    .    .   .   .    .

Guitar 2
D|---------------------------|
A|---------------------------|
F|------------------10-10-10-|
C|-------------------x--x--x-|
G|---13---12---10----8--8--8-|
C|77----7----7----7----------|
  ..    .    .    .

Guitar 2
D|----------------------------------|
A|----------------------------------|
F|----------------------------------|
C|----------------------------------|
G|---13---12---10---8---9---10---12-|
C|77----7----7----7---7---7----7----|
  ..    .    .    .   .   .    .

Guitar 2
D|---------------------------|
A|---------------------------|
F|---------------------------|
C|------------------5-8-7-10-|
G|---13---12---10---5-8-7-10-|
C|77----7----7----7-5-8-7-10-|
  ..    .    .    .

Guitar 2
D|------------------------------------------------|
A|------------------------------------------------|
F|-------------------7----------------------------|
C|------5-----7-9-10---10-9-10-9-7-8-7-5----------|
G|5-7-8---8-7----------------------------10-9-7-5-|
C|------------------------------------------------|

Guitar 2
D|---------------------------------|
A|---------------------------------|
F|-------------------7-------------|
C|------5-----7-9-10---5-5-8-5-----|
G|5-7-8---8-7------------------7-8-|
C|---------------------------------|

Guitar 2                                         x3
D|------------------------------------------------|
A|------------------------------------------------|
F|-------------------7----------------------------|
C|------5-----7-9-10---10-9-10-9-7-8-7-5----------|
G|5-7-8---8-7----------------------------10-9-7-5-|
C|------------------------------------------------|

Guitar 2
D|----------------------------------------------|
A|----------------------------------------------|
F|-------------------7--------------------------|
C|------5-----7-9-10---10-9-10-9-7-8-7-5--------|
G|5-7-8---8-7----------------------------10-9-7-|
C|----------------------------------------------|

Guitar 1
D|------------------------------------------|
A|------------------------------------------|
F|------------------------------------------|
C|------------------------------------------|
G|8-7-5-------------------------------------|
C|------13-12-10-12-11-9-10-9-7-8-7-5-7-5-3-|

Guitar 2
D|-----------------------------------------------|
A|-----------------------------------------------|
F|-----------------------------------------------|
C|-----------------------------------------------|
G|6h9-8h11-t9pt13pt12pt9p----13-12-10----12-11-9-|
C|------------------------00----------00---------|
                          ..          ..

Guitar 2
D|-----------------------------------------------|
A|-----------------------------------------------|
F|-----------------------------------------------|
C|-----------------------------------------------|
G|6h9-8h11-t9pt13pt12pt9p----13-12-10----12-9h11-|
C|------------------------00----------00---------|
                          ..          ..

Guitar 2
D|-------------------|
A|-------------------|
F|-------------------|
C|-------------------|
G|13-12-10-8-9-10-12-|
C|-------------------|
Добавлено: 05.04.2012
Вам также может быть интересно:
Другие материалы по этой песне:
  • Аккорды и текст

Страница создана 05.04.2012
http://primanota.ru/here-comes-the-kraken/miss-starving-skeleton-chords.htm
Привет, Гость.
Предлагаем пройти революционный курс по гитаре.
Подарок от PrimaNota.Ru, забирай!