PrimaNota.ru - самый крупный в мире бесплатный архив песенных текстов, аккордов, табулатур и нот


Herbie Hancock - Palm Grease - бас-таба, видео

Регистрация Запомнить меня
Войти через:  Facebook Google Twitter Vk Yandex Mail.ru

Herbie Hancock - Palm Grease - бас-таба, видео

Печатать
Просмотров: 197
Уроки эстрадного вокала в Санкт-Петербурге
Авторы музыки: Herbie Hancock

Herbie Hancock and the Headhunters
"Palm Grease"
Thrust, 1974

Paul Jackson, electric bass

4/4

G--------------------------------|---------------------/7---------|
D--------------------------------|--------------------------------|
A-drums intro--------------------|--------------------------------|
E--------------------------------|--------------------------------|

|--5-----------------------------|---------------------/7---------|
|.---7---------7--------7-5----5-|-7-----------------------------.|
|.-----7----------7----------7---|-------------------------------.|
|--------5-----------------------|--------------------------------|

|--------------------------------|--------------------------------|
|--------2-4-/4~--2--------------|--------------------------------|
|-2-4-----------------4----------|--------------------------------|
|------------------------0-------|---------0--2-------------------|

|R-------------------------------|--------------------------------|
|--E--------------bars-----------|--------------------------------|
|----S--------few----------------|--------------------------------|
|------T----a--------------------|--------------------------------|


4/4 + 4/4 + 2/4 = 10/4


|--------/9--7---6--7------------|--------------------------------|--7-9---12-9----|
|--------------------------------|--------------------------------|----------------|
|--5-----------------------------|--------------------------------|----------------|
|--------------------------------|--------------------------------|----------------|

|-------------9--7---6--7--------|--9--7-----7--9-(7)--9-----9--7-|--7-9---12-9----|
|.-------------------------------|--------9-----------------------|---------------.|
|.---5-7-------------------------|--------------------------------|---------------.|
|--------0~~---------------------|--------------------------------|----------------|



|-------------9--7---6--7--------|--9--7-----7--9-(7)--9-----9--7-|--7-9---12-9----|
|--------------------------------|--------9-----------------------|----------------|
|--5-7---------------------------|--------------------------------|----------------|
|-------0~~----------------------|--------------------------------|--------------8-|

4/4

|--------------------------------|--------------------------------|
|.-------------------------------|-------------------------------.|
|.-6-6-8-8----6-6--8-8-----6-6-8-|-6-6-8--8----------------------.|
|-----------8------------8-------|--------------------------------|


|--------------------------------|--------------------/9--/7~-----|
|.-------------------------------|--7-----------------------------|
|.-6-6-8--8--------6-6--8-8------|----7---------------------------|
|-----------------8------------8-|-------5--5---------------------|

"CODA"
4/4

|-------------9--7---6--7--------|--9--7----7--9-9----b15\14--12--|
|.-------------------------------|-------9-----------------------.|
|.---5-7-------------------------|-------------------------------.|
|--------0~~---------------------|--------------------------------|
Добавлено: 04.03.2012
Другие материалы по этой песне:
  • Аккорды и текст

Страница создана 04.03.2012
http://primanota.ru/herbie-hancock/palm-grease-chords.htm
Привет, Гость.
Предлагаем пройти революционный курс по гитаре.
Подарок от PrimaNota.Ru, забирай!