PrimaNota.ru - самый крупный в мире бесплатный архив песенных текстов, аккордов, табулатур и нот


Herbie Hancock - Dolphin Dance - таба, видео

Регистрация Запомнить меня
Войти через:  Facebook Google Twitter Vk Yandex Mail.ru

Herbie Hancock - Dolphin Dance - таба, видео

Печатать
Просмотров: 225
Авторы музыки: Herbie Hancock

+++++++++++++++++

Chord melody of the H Hancock hit:
Dolphin dance



jmolives@hotmail.com


++++++++++++++++++++++++++++






  Eb7M            Bb-7   Eb7M      D-75b   G7
|--------------6-|-----|-------6-|-----|
|----------8-9---|-6---|-8---9---|-6-3-|
|----------7-----|-6---|-7-------|-5-4-|
|----------8-----|-6---|-8-------|-6-3-|
|----------6-----|-----|-6-------|-5---|
|----------------|-6---|---------|---3-|


  c-7      Ab7   C-7      A-7 D7   G7M
|--3---3-|-----|-3---3-|-3-5---|---2---|
|--4-6---|---3-|-4-6---|---5-1-|-0-3---|
|--3-----|---5-|-3-----|-----3-|---4---|
|--------|---4-|-------|---5-2-|---5---|
|--3-----|-----|-3-----|---4-3-|-------|
|--------|---4-|-------|-------|-------|



   Ab-7 Db7  F-7  Bb7
|--2-4-2-4-|-6-|-6-|
|----------|-8-|-6-|
|----------|-8-|---|
|----------|---|-6-|
|----------|-8-|-5-|
|----------|---|---|


  C-7    C-7   A-7    D7
|--3-6-|-8-6-8-|-10-|--10-|
|--4-8-|-------|-8--|--10-|
|--3-8-|-------|-9--|-----|
|------|-------|-7--|--10-|
|--3-8-|-------|----|--9--|





  G7M      G7  A       G7sus4
|--7-8-10-|-5-|-3-5-7-|---|
|--7------|-5-|-2-----|-6-|
|--7------|-4-|-2-----|-5-|
|--5------|-3-|-2-----|-5-|
|---------|---|-------|-5-|
|--7------|-3-|-3-----|---|


  F7 sus4 G       F7  sus4   E-7 A7
|----1-3-|---|---------1-3-|-5-5-|
|--4-----|-3-|-------4-----|-7-5-|
|--------|-4-|-------------|-7-4-|
|--------|-4-|-------------|-----|
|--------|---|-------------|-7---|
|--------|-3-|-------------|---3-|



  Eb7             A-7     B-7           E7  D-7
|--5-6-5-4-5-5-10-|-7-|-7-9-7-6-7-7---|-12-13-|
|--------------8--|-5-|-7-------------|-10-13-|
|--------------9--|-5-|-7-----------9-|-11----|
|--------------7--|-4-|---------------|-9--12-|
|-----------------|---|---------------|----12-|
|-----------------|---|---------------|-------|


  C#-7           F#7   B-7  A-  B-    A-
|--14-12-------|-11-|---7-|-7-|-7---|-7-|
|--------12----|-9--|-7-7-|-5-|-7---|-5-|
|-----------13-|-9--|---7-|-5-|-7---|-5-|
|--------------|-8--|-----|-5-|-7---|-5-|
|--------------|----|-----|---|-----|---|
|--------------|----|-----|---|-----|---|



Bb-        Bb7   Bb7   D-75b  G9b

|--8-9-11-|-6-|-3-4-6-|-----|
|--6------|-6-|-------|-6-4-|
|--6------|---|-------|-5-4-|
|--6------|-6-|-------|-6-3-|
|---------|-5-|-------|-5---|
|---------|---|-------|---3-|
Добавлено: 21.05.2012
Другие материалы по этой песне:

Страница создана 21.05.2012
http://primanota.ru/herbie-hancock/dolphin-dance-chords.htm
Привет, Гость.
Предлагаем пройти революционный курс по гитаре.
Подарок от PrimaNota.Ru, забирай!