PrimaNota.ru - самый крупный в мире бесплатный архив песенных текстов, аккордов, табулатур и нот


Herbie Hancock - Cantaloupe Island - таба, бас-таба, видео

Регистрация Запомнить меня
Войти через:  Facebook Google Twitter Vk Yandex Mail.ru

Herbie Hancock - Cantaloupe Island - таба, бас-таба, видео

Печатать
Просмотров: 551
Авторы музыки: Herbie Hancock

Tuning: Standard (e B G D A E)
                4
Time Signature: 4

If you have any questions, Email me at jpkvortex1@hotmail.com.

The drums, bass, and piano come in, and play for sixteen counts, then the trumpet melody 
in, which goes like this:

e|------------------------------------------------|
B|---------------------------------------13-------|
G|-----------------13-15-13/15~----13-15----------|
D|----15-15-----15--------------------------13-15-|
A|------------------------------------------------|
E|------------------------------------------------|

Wait seven counts, then play it again:

e|------------------------------------------------|
B|---------------------------------------13-------|
G|-----------------13-15-13/15~----13-15----------|
D|----15-15-----15--------------------------13-15-|
A|------------------------------------------------|
E|------------------------------------------------|

Wait seven more counts, then play this:


The slide from 12 to 13 is optional, you can just play 13 and 16, but the slide gives it 
more jazzy sound
       |
e|------------------------------------------------------------------|
B|----12/13-16-12/13-16----------12/13-16-12/13-16------------------|
G|------------------------------------------------------------------|
D|----------------------15-15~---------------------15-15~-----15-15-|
A|------------------------------------------------------------------|
E|------------------------------------------------------------------|


That's the melody. The chords the first time are Fminor, the second time
it's Db9, the third time is Dminor7, and then the last time, back to Fminor.
Добавлено: 04.06.2012
Другие материалы по этой песне:

Страница создана 18.03.2012
http://primanota.ru/herbie-hancock/cantaloupe-island-chords.htm
Привет, Гость.
Предлагаем пройти революционный курс по гитаре.
Подарок от PrimaNota.Ru, забирай!