PrimaNota.ru - самый крупный в мире бесплатный архив песенных текстов, аккордов, табулатур и нот


Herb Alpert And The Tijuana Brass - El Lobo The Wolf - таба, видео

Регистрация Запомнить меня
Войти через:  Facebook Google Twitter Vk Yandex Mail.ru

Herb Alpert And The Tijuana Brass - El Lobo The Wolf - таба, видео

Печатать
Просмотров: 64
El Lobo
by Sol Lake and Harry Green
as performed by
Herb Alpert & the Tijuana Brass
on The Lonely Bull

3/4 in Fm

Intro: Fm - Eb - Db - C7

Lick
Fm                Eb            Db          C7
---------------------------------------------------------|
---------------------------------------------------------|
------10-13-12-10-8--------------------------------------|
---10---------------8---------8-6---------------------8--|
-8--------------------10-6-10-----8-4---4-8-7-8-10-11----|
--------------------------------------4------------------|

Chorus
Fm - Eb - Fm - Eb - Db - C7

(lick)

Fm - Eb - Fm - Eb - Db - Eb

Bridge
Ab - Ab - Ab - Ab

Ab - Ab - Ab - Ab

Fm - Fm - Fm - Fm

Db - Ab - Eb - Ab

C - C#dim - B7 - B7

B7 - B7

Chorus 2
Fm - Eb - Fm - Eb - Db - C7

(lick)

Fm - Eb - Fm - Eb - Db - C7

Fm - Eb - Db - C7

(with bells)
q  q  q
Fm Fm Eb - Fm - Rest - Rest

Eb Eb Db - Eb - Rest - Rest

                q  q  q
Db Db C  - Db - Db Eb Db - C7 - C7

Interlude (with 2nd guitar)
 Eb                     Db
-6----------------------4--------------------|
---8-----------------8----6---------------6--|
-----8-------------8--------6-----------6----|
-------8---------8------------6-------6------|
---------10-6-10----------------8-4-8--------|
---------------------------------------------|
C7
----------------------------------------------|
----------------------------------------------|
--------------3-5-6-5-3---------------3-5-6-3-|
-------3-5-6------------6-5-3-2-3-5-6---------|
-3-5-7----------------------------------------|
----------------------------------------------|


Chorus (with strings)
Fm - Eb - Fm - Eb - Db - C7

(lick)

Fm - Eb - Fm - Eb - Db - C7 - C7 - C7 - C7

(lick) 3x (fade out)

tabbed by Mike Levay
Staten Island, NY
Добавлено: 28.11.2013
Вам также может быть интересно:
Другие материалы по этой песне:
  • Аккорды и текст

Страница создана 28.11.2013
http://primanota.ru/herb-alpert-and-the-tijuana-brass/el-lobo-the-wolf-chords.htm
Привет, Гость.
Предлагаем пройти революционный курс по гитаре.
Подарок от PrimaNota.Ru, забирай!