PrimaNota.ru - самый крупный в мире бесплатный архив песенных текстов, аккордов, табулатур и нот


Her Latest Flame - This Time Around - бас-таба, видео

Регистрация Запомнить меня
Войти через:  Facebook Google Twitter Vk Yandex Mail.ru

Her Latest Flame - This Time Around - бас-таба, видео

Печатать
Просмотров: 479
Hey, this is my first proper tab. Hope you like it. (GO LOCAL MUSIC!)
Artist: Her Latest Flame
Song Title: This Time Around
CD: Haunted City Sounds EP

Tuning - EADG (Standard YAY)

G|------------|  x4
D|-8--8--9--9-| (Let Notes Hang)
A|------------|
E|------------|

This time around...
G|------------------------|
D|-8--8--9--9--8--8--9--9-| (Let Notes Hang)
A|------------------------|
E|------------------------|

(1st scream)
G|-----------------| x2
D|-----------------|
A|-222-222-22--222-|
E|-----------------|

               Your kiss is my oxygen...
G|------7---------------|
D|-8--9------8--8--9--9-| (Let Notes Hang)
A|----------------------|
E|----------------------|

(2nd Scream)
G|-----------------| x2
D|-----------------|
A|-222-222-22--222-|
E|-----------------|

            It gets so hard when your not here...
G|--------------------------------------------------|
D|--------------------------------------------------|
A|-222222225555555500000000444444442222222255555555-|
E|--------------------------------------------------|


G|-----------------|
D|-----------------|
A|-222-222-22--222-|
E|-----------------|

                  And I can't breathe your choking me...
G|--------------------------------------------------|
D|--------------------------------------------------|
A|-222222225555555500000000444444442222222255555555-|
E|--------------------------------------------------|


G|-----------------|
D|-----------------|
A|-222-222-22--222-|
E|-----------------|


         This time a-round... I can't feel you... Your in my head...
G|-----------------------------------------------------------|
D|-----------------------------------------------------------|
A|-22222222222222555555555555522222222222222-00--000-00--000-|
E|-----------------------------------------------------------|

         This time a-round... I can't feel you... To me your dead...
G|-----------------------------------------------------------|
D|-----------------------------------------------------------|
A|-22222222222222555555555555522222222222222-000-000-000-000-|
E|-----------------------------------------------------------|

        Whats the point of this...
G|----------|
D|----------|
A|-2--------| (Let note hang)
E|----------|

    POISON...
G|-----------------| x2
D|-----------------|
A|-222-222-22--222-|
E|-----------------|

           Flying razorblades... like...
G|------7---------------|
D|-8--9-----------------|
A|----------------------|
E|----------------------|

    FIRE...
G|-----------------| x2
D|-----------------|
A|-222-222-22--222-|
E|-----------------|

 Your the only thing that burns like summer sun....
G|--------------------------------------------------|
D|--------------------------------------------------|
A|-222222225555555500000000444444442222222255555555-|
E|--------------------------------------------------|

G|-----------------|
D|-----------------|
A|-222-222-22--222-|
E|-----------------|

    It gets so hard when your not here...
G|--------------------------------------------------|
D|--------------------------------------------------|
A|-222222225555555500000000444444442222222255555555-|
E|--------------------------------------------------|


G|-----------------|
D|-----------------|
A|-222-222-22--222-|
E|-----------------|

         This time a-round... I can't feel you... your in my head...
G|-----------------------------------------------------------|
D|-----------------------------------------------------------|
A|-22222222222222555555555555522222222222222-00--000-00--000-|
E|-----------------------------------------------------------|

         This time a-round... I can't feel you... to me your dead...
G|-----------------------------------------------------------|
D|-----------------------------------------------------------|
A|-22222222222222555555555555522222222222222-000-000-000-000-|
E|-----------------------------------------------------------|

     Your dead....
G|--------------------------------------------------------|
D|--------------------------------------------------------|
A|-222222222222222222222222222222222222222222222222222222-|
E|--------------------------------------------------------|

    Your dead...
G|--------------------------------------------------------|
D|--------------------------------------------------------|
A|-444444444444444444444444444444444444444444444444444444-|
E|--------------------------------------------------------|

     Your dead....
G|--------------------------------------------------------|
D|--------------------------------------------------------|
A|-222222222222222222222222222222222222222222222222222222-|
E|--------------------------------------------------------|

    Your dead...
G|--------------------------------------------------------|
D|--------------------------------------------------------|
A|-444444444444444444444444444444444444444444444444444444-|
E|--------------------------------------------------------|

I'd bleed for you
G|---------------------------------| x4
D|---------------------------------|
A|-2-2-2-2-2-2-2-2-4-4-4-4-4-4-4-4-|
E|---------------------------------|


G|-------------------------| x5
D|-------------------------|
A|-22--2--22--44--4--44--4-|
E|-------------------------|


G|---------------| x2
D|---------------|
A|222-222-22-2-2-|
E|---------------|

    This time a-round... I can't feel you... your in my head...
G|-----------------------------------------------------------|
D|-----------------------------------------------------------|
A|-22222222222222555555555555522222222222222-00--000-00--000-|
E|-----------------------------------------------------------|

   This time a-round... I can't feel you... to me your dead...
G|-----------------------------------------------------------|
D|-----------------------------------------------------------|
A|-22222222222222555555555555522222222222222-000-000-000-000-|
E|-----------------------------------------------------------|

Your dead, your dead.
G|---------------| x2
D|---------------|
A|222-222-22-2-2-|
E|---------------|

Any comments, questions or hate mail... send them to...
clonewar_jedi@hotmail.com

www.myspace.com/herlatestflame
Добавлено: 15.03.2012
Вам также может быть интересно:
Другие материалы по этой песне:
  • Аккорды и текст

Страница создана 15.03.2012
http://primanota.ru/her-latest-flame/this-time-around-chords.htm
Привет, Гость.
Предлагаем пройти революционный курс по гитаре.
Подарок от PrimaNota.Ru, забирай!