PrimaNota.ru - самый крупный в мире бесплатный архив песенных текстов, аккордов, табулатур и нот


Her Latest Flame - Bullets And Staples - таба, видео

Регистрация Запомнить меня
Войти через:  Facebook Google Twitter Vk Yandex Mail.ru

Her Latest Flame - Bullets And Staples - таба, видео

Печатать
Просмотров: 87
Artist: Her Latest Flame
Song: Bullets and Staples
Album: Haunted City Sounds
Email: Edmund_pimp_edt@hotmail.com

the muting parts at 2.08-2.21 my be a bit wrong. it's very hard to listen to it :( but 
i'm 99% sure the whole tab is correct :)
ENJOY!

Standard Tuning : E,B,G,D,A,E

Key : * - palm mute

                                  [INTRO] [0.00]
E-------------------------------------------------------------------------|
B-------------------------------------------------------------------------|
G----7-7-5-7-5-----7-7-5-7-5-----7-7-5-7-5-----7-7-5-7-5------------------|
D--------------7-------------7-------------7-------------7----------------|
A-------------------------------------------------------------------------|
E--0-------------0-------------8-------------7----------------------------|
                                  [0.06]
E-------------------------------------------------------------------------|
B-------------------------------------------------------------------------|
G----7-7-5-7-5-----7-7-5-7-5-----7-7-5-7-5-----7-7-5-7-5------------------|
D--------------7-------------7-------------7-------------7----------------|
A-------------------------------------------------------------------------|
E--0-------------0-------------8-------------7----------------------------|
                                  [0.13]
E-------------------------------------------------------------------------|
B-------------------------------------------------------------------------|
G----7-7-5-7-5-----7-7-5-7-5-----7-7-5-7-5-----7-7-5-7-5------------------|
D--------------7-------------7-------------7-------------7----------------|
A-------------------------------------------------------------------------|
E--0-------------0-------------8-------------7----------------------------|
                                  [0.19]
E-------------------------------------------------------------------------|
B-------------------------------------------------------------------------|
G----7-7-5-7-5-----7-7-5-7-5-----7-7-5-7-5-----7-7-5-7-5------------------|
D--------------7-------------7-------------7-------------7----------------|
A-------------------------------------------------------------------------|
E--0-------------0-------------8-------------7----------------------------|

                                  [FILL] [0.25]
E-------------------------------------------------------------------------|
B-------3-3-1-3-1-------3-3-1-3-1-------3-3-1-3-1-------3-3-1-3-1---------|
G-----------------2---------------2-5-5-----------2-4-4-----------2-------|
D--2-2--------------2-2-------------5-5-------------4-4-------------------|
A--2-2--------------2-2-------------3-3-------------2-2-------------------|
E--0-0--------------0-0---------------------------------------------------|
                                  [0.32]
E-------------------------------------------------------------------------|
B-------3-3-1-3-1-------3-3-1-3-1-------3-3-1-3-1-------3-3-1-3-1---------|
G-----------------2---------------2-5-5-----------2-4-4-----------2-------|
D--2-2--------------2-2-------------5-5-------------4-4-------------------|
A--2-2--------------2-2-------------3-3-------------2-2-------------------|
E--0-0--------------0-0---------------------------------------------------|
                                  [0.39]
E-------------------------------------------------------------------------|
B-------3-3-1-3-1-------3-3-1-3-1-------3-3-1-3-1-------3-3-1-3-1---------|
G-----------------2---------------2-5-5-----------2-4-4-----------2-------|
D--2-2--------------2-2-------------5-5-------------4-4-------------------|
A--2-2--------------2-2-------------3-3-------------2-2-------------------|
E--0-0--------------0-0---------------------------------------------------|
                                  [0.45]
E-------------------------------------------------------------------------|
B-------3-3-1-3-1-------3-3-1-3-1-------3-3-1-3-1-------------------------|
G-----------------2---------------2-5-5-----------2-4-4--2-2--------------|
D--2-2--------------2-2-------------5-5-------------4-4--2-2--------------|
A--2-2--------------2-2-------------3-3-------------2-2--0-0--------------|
E--0-0--------------0-0---------------------------------------------------|

                                 [CHORUS] [0.51]
E-------------------------------------------------------------------------|
B-------------------------------------------------------------------------|
G-------------------5-5-5-5-5-5-5-5---------------------------------------|
D--2-2-2-2-2-2-2-2--5-5-5-5-5-5-5-5--5-5-5-5-5-5-5-5--7-7-7-7-7-7-7-7-----|
A--2-2-2-2-2-2-2-2--3-3-3-3-3-3-3-3--5-5-5-5-5-5-5-5--7-7-7-7-7-7-7-7-----|
E--0-0-0-0-0-0-0-0-------------------3-3-3-3-3-3-3-3--5-5-5-5-5-5-5-5-----|
                                  [0.58]
E-------------------------------------------------------------------------|
B-------------------------------------------------------------------------|
G-------------------5-5-5-5-5-5-5-5---------------------------------------|
D--2-2-2-2-2-2-2-2--5-5-5-5-5-5-5-5--5-5-5-5-5-5-5-5--7-7-7-7-7-7-7-7-----|
A--2-2-2-2-2-2-2-2--3-3-3-3-3-3-3-3--5-5-5-5-5-5-5-5--7-7-7-7-7-7-7-7-----|
E--0-0-0-0-0-0-0-0-------------------3-3-3-3-3-3-3-3--5-5-5-5-5-5-5-5-----|

                                [FILL TWO] [1.04]
E------3-3-1-0---0-----3-3-1-0---0----------------------------------------|
B--------------2---------------2-------3-3-1-3-1-------3-3-1-3-1----------|
G----------------------------------5-5-----------2-4-4-----------2--------|
D--2-2-------------2-2-------------5-5-------------4-4--------------------|
A--2-2-------------2-2-------------3-3-------------2-2--------------------|
E--0-0-------------0-0----------------------------------------------------|
                                  [1.10]
E------3-3-1-0---0-----3-3-1-0---0----------------------------------------|
B--------------2---------------2-------3-3-1-3-1-------3-3-1-3-1----------|
G----------------------------------5-5-----------2-4-4-----------2--------|
D--2-2-------------2-2-------------5-5-------------4-4--------------------|
A--2-2-------------2-2-------------3-3-------------2-2--------------------|
E--0-0-------------0-0----------------------------------------------------|
                                  [1.17]
E------3-3-1-0---0-----3-3-1-0---0----------------------------------------|
B--------------2---------------2-------3-3-1-3-1-------3-3-1-3-1----------|
G----------------------------------5-5-----------2-4-4-----------2--------|
D--2-2-------------2-2-------------5-5-------------4-4--------------------|
A--2-2-------------2-2-------------3-3-------------2-2--------------------|
E--0-0-------------0-0----------------------------------------------------|
                                  [1.23]
E------3-3-1-0---0-----3-3-1-0---0----------------------------------------|
B--------------2---------------2-------3-3-1-3-1--------------------------|
G----------------------------------5-5-----------2-4-4-2-2----------------|
D--2-2-------------2-2-------------5-5-------------4-4-2-2----------------|
A--2-2-------------2-2-------------3-3-------------2-2-0-0----------------|
E--0-0-------------0-0----------------------------------------------------|

                               [SECOND CHORUS] [1.30]
E-------------------------------------------------------------------------|
B-------------------------------------------------------------------------|
G------------------5-5-5-5-5-5-5-5----------------------------------------|
D-2-2-2-2-2-2-2-2--5-5-5-5-5-5-5-5--5-5-5-5-5-5-5-5--7-7-7-7-7-7-7-7------|
A-2-2-2-2-2-2-2-2--3-3-3-3-3-3-3-3--5-5-5-5-5-5-5-5--7-7-7-7-7-7-7-7------|
E-0-0-0-0-0-0-0-0-------------------3-3-3-3-3-3-3-3--5-5-5-5-5-5-5-5------|
                                   [1.36]
E-------------------------------------------------------------------------|
B-------------------------------------------------------------------------|
G------------------5-5-5-5-5-5-5-5----------------------------------------|
D-2-2-2-2-2-2-2-2--5-5-5-5-5-5-5-5--5-5-5-5-5-5-5-5--7-7-7-7-7-7-7-7------|
A-2-2-2-2-2-2-2-2--3-3-3-3-3-3-3-3--5-5-5-5-5-5-5-5--7-7-7-7-7-7-7-7------|
E-0-0-0-0-0-0-0-0-------------------3-3-3-3-3-3-3-3--5-5-5-5-5-5-5-5------|
                                   [1.43]
E-------------------------------------------------------------------------|
B-------------------------------------------------------------------------|
G------------------5-5-5-5-5-5-5-5----------------------------------------|
D-2-2-2-2-2-2-2-2--5-5-5-5-5-5-5-5--5-5-5-5-5-5-5-5--7-7-7-7-7-7-7-7------|
A-2-2-2-2-2-2-2-2--3-3-3-3-3-3-3-3--5-5-5-5-5-5-5-5--7-7-7-7-7-7-7-7------|
E-0-0-0-0-0-0-0-0-------------------3-3-3-3-3-3-3-3--5-5-5-5-5-5-5-5------|
                                                  ^^^^^^^^^^^^^^^^^^^^^^^^^
                                                  E-----------------------|
                                                  B-----------------------|
                                                  G--7-7-7-7-7-7-7-7------|
                                                  D--7-7-7-7-7-7-7-7------|
                                                  A--5-5-5-5-5-5-5-5------|
                                                  E-----------------------|
                                                  (if you replace this with
                                                   the actual tab i reckon
                                                   it sounds better; adds a
                                                   bit of variety to the
                                                   song. your choice though)
                                   [1.49]
E-------------------------------------------------------------------------|
B-------------------------------------------------------------------------|
G------------------5-5-5-5-5-5-5-5----------------------------------------|
D-2-2-2-2-2-2-2-2--5-5-5-5-5-5-5-5--5-5-5-5-5-5-5-5--7-7-7-7-7-7-7-7------|
A-2-2-2-2-2-2-2-2--3-3-3-3-3-3-3-3--5-5-5-5-5-5-5-5--7-7-7-7-7-7-7-7------|
E-0-0-0-0-0-0-0-0-------------------3-3-3-3-3-3-3-3--5-5-5-5-5-5-5-5------|

                                [FILL THREE] [1.56]
E-------------------------------------------------------------------------|
B-------------------------------------------------------------------------|
G-------------------------------------------------------------------------|
D-------------------------------------------------------------------------|
A--4-4-4-4-4-4-4-4-4-4-4-4-4-4-4-4-5-5-5-5-5-5-5-5-7-7-7-7-9-9-9-9--------|
E-------------------------------------------------------------------------|
   * * * * * * * * * * * * * * * * * * * * * * * * * * * * * * * *
                                   [2.01]
E-------------------------------------------------------------------------|
B-------------------------------------------------------------------------|
G-------------------------------------------------------------------------|
D-------------------------------------------------------------------------|
A--4-4-4-4-4-4-4-4-4-4-4-4-4-4-4-4-5-5-5-5-5-5-5-5-7-7-7-7-9-9-9-9--------|
E-------------------------------------------------------------------------|
   * * * * * * * * * * * * * * * * * * * * * * * * * * * * * * * *
                                   [2.08]
E-------------------------------------------------------------------------|
B-------------------------------------------------------------------------|
G-------------------------------------------------------------------------|
D-------------------------------------------------------------------------|
A--4-4-4-4-4-4-4-4-4-4-4-4-4-4-4-4-5-5-5-5-5-5-5-5-7-7-7-7-9-9-9-9--------|
E-------------------------------------------------------------------------|
   * * * * * * * * * * * * * * * * * * * * * * * * * * * * * * * *
                                   [2.14]
E-------------------------------------------------------------------------|
B-------------------------------------------------------------------------|
G-------------------------------------------------------------------------|
D--------------------------------------------------2-2-2-2-2-2-2-2--------|
A--4-4-4-4-4-4-4-4-4-4-4-4-4-4-4-4-5-5-5-5-5-5-5-5-2-2-2-2-2-2-2-2--------|
E--------------------------------------------------0-0-0-0-0-0-0-0--------|
   * * * * * * * * * * * * * * * * * * * * * * * * * * * * * * * *
            [2.21]
E----------------------------|
B----3---3-0-0----3---3-0-0--|
G----------------------------|
D--2---2--------2---2--------|
A----------------------------|
E----------------------------|
   * * * * * *  * * * * * *
                                   [2.24]
E----------------------------------------------------------0-1-3-3-3-3----|
B------3-3-1-3-1-------3-3-1-3-1-------3-3-1-3-1-------1-3----------------|
G----------------2---------------2-5-5-----------2-4-4--------------------|
D--2-2-------------2-2-------------5-5-------------4-4--------------------|
A--2-2-------------2-2-------------3-3-------------2-2--------------------|
E--0-0-------------0-0----------------------------------------------------|
               [2.31]
E-----------------------------------|
B------3-3-1-3-1-------1-3-4-5-7-7--|
G----------------2------------------|
D--2-2-------------2-2--------------|
A--2-2-------------2-2--------------|
E--0-0-------------0-0--------------|

                                  [OUTRO] [2.34]
E-------------------------------------------------------------------------|
B-------------------------------------------------------------------------|
G------------------5-5-5-5-5-5-5-5----------------------------------------|
D-2-2-2-2-2-2-2-2--5-5-5-5-5-5-5-5--5-5-5-5-5-5-5-5--7-7-7-7-7-7-7-7------|
A-2-2-2-2-2-2-2-2--3-3-3-3-3-3-3-3--5-5-5-5-5-5-5-5--7-7-7-7-7-7-7-7------|
E-0-0-0-0-0-0-0-0-------------------3-3-3-3-3-3-3-3--5-5-5-5-5-5-5-5------|
                                    [2.40]
E-------------------------------------------------------------------------|
B-------------------------------------------------------------------------|
G------------------5-5-5-5-5-5-5-5----------------------------------------|
D-2-2-2-2-2-2-2-2--5-5-5-5-5-5-5-5--5-5-5-5-5-5-5-5--7-7-7-7-7-7-7-7------|
A-2-2-2-2-2-2-2-2--3-3-3-3-3-3-3-3--5-5-5-5-5-5-5-5--7-7-7-7-7-7-7-7------|
E-0-0-0-0-0-0-0-0-------------------3-3-3-3-3-3-3-3--5-5-5-5-5-5-5-5------|
                                    [2.47]
E-------------------------------------------------------------------------|
B-------------------------------------------------------------------------|
G------------------5-5-5-5-5-5-5-5----------------------------------------|
D-2-2-2-2-2-2-2-2--5-5-5-5-5-5-5-5--5-5-5-5-5-5-5-5--7-7-7-7-7-7-7-7------|
A-2-2-2-2-2-2-2-2--3-3-3-3-3-3-3-3--5-5-5-5-5-5-5-5--7-7-7-7-7-7-7-7------|
E-0-0-0-0-0-0-0-0-------------------3-3-3-3-3-3-3-3--5-5-5-5-5-5-5-5------|
                                    [2.53]
E-------------------------------------------------------------------------|
B-------------------------------------------------------------------------|
G------------------5-5-5-5-5-5-5-5----------------------------------------|
D-2-2-2-2-2-2-2-2--5-5-5-5-5-5-5-5--5-5-5-5-5-5-5-5--7-7--5-5--2----------|
A-2-2-2-2-2-2-2-2--3-3-3-3-3-3-3-3--5-5-5-5-5-5-5-5--7-7--5-5--2~LET RING-|
E-0-0-0-0-0-0-0-0-------------------3-3-3-3-3-3-3-3--5-5--3-3--0----------|
Добавлено: 16.07.2012
Другие материалы по этой песне:
  • Аккорды и текст

Страница создана 16.07.2012
http://primanota.ru/her-latest-flame/bullets-and-staples-chords.htm
Привет, Гость.
Предлагаем пройти революционный курс по гитаре.
Подарок от PrimaNota.Ru, забирай!