PrimaNota.ru - самый крупный в мире бесплатный архив песенных текстов, аккордов, табулатур и нот


Her Latest Flame - Bullets And Staples Bass - бас-таба, видео

Регистрация Запомнить меня
Войти через:  Facebook Google Twitter Vk Yandex Mail.ru

Her Latest Flame - Bullets And Staples Bass - бас-таба, видео

Печатать
Просмотров: 109
Уроки эстрадного вокала в Санкт-Петербурге
Artist: Her Latest Flame
Song Title: Bullets And Staples
CD: Haunted City Sounds EP

Tuning - EADG (Standard YAY)

Intro:
0:25
G|-------------------|
D|-------------------|
A|-----------33---22-|
E|-00---00-----------|

Verse 1:
0:32
G|-------------------| x2
D|-------------------|
A|-----------33---22-|
E|-00---00-----------|

G|------------------------|
D|------------------------|
A|-----------33---22---00-|
E|-00---00----------------|


Chorus:
0:52                                  _
G|---------------------------------|   |
D|---------------------------------|   |
A|-----------------3-3-3-3-3-3-3-3-|   |
E|-0-0-0-0-0-0-0-0-----------------|   |
                                        }x2
G|---------------------------------|   |
D|---------------------------------|   |
A|-0-0-0-0-0-0-0-0-2-2-2-2-2-2-2-2-|   |
E|---------------------------------|  _|

Verse 2:
1:04
G|---------------------| x3
D|---------------------|
A|-----------33---22---|
E|-00---00-------------|

G|------------------------|
D|------------------------|
A|-----------33---22---00-|
E|-00---00----------------|

Chorus:
1:30                                  _
G|---------------------------------|   |
D|---------------------------------|   |
A|-----------------3-3-3-3-3-3-3-3-|   |
E|-0-0-0-0-0-0-0-0-----------------|   |
                                        }x4
G|---------------------------------|   |
D|---------------------------------|   |
A|-0-0-0-0-0-0-0-0-2-2-2-2-2-2-2-2-|   |
E|---------------------------------|  _|

Bridge:
2:08
G|------------------| x2
D|------------------| (Let Notes Hang)
A|-3----2----0------|
E|----------------0-|

2:24
G|--------------|
D|--------------|
A|-33---22---00-|
E|--------------|

G|--------------|
D|--------------|
A|-00---33---22-|
E|--------------|

Chorus:

2:34                                  _
G|---------------------------------|   |
D|---------------------------------|   |
A|-----------------3-3-3-3-3-3-3-3-|   |
E|-0-0-0-0-0-0-0-0-----------------|   |
                                        }x3
G|---------------------------------|   |
D|---------------------------------|   |
A|-2-2-2-2-2-2-2-2-0-0-0-0-0-0-0-0-|   |
E|---------------------------------|  _|

G|---------------------------------|
D|---------------------------------|
A|-----------------3-3-3-3-3-3-3-3-|
E|-0-0-0-0-0-0-0-0-----------------|

G|---------------------------------|
D|---------------------------------|
A|-2-2-2-2-2-2-2-2-00---00---0-----| (Let Last Note Hang)
E|---------------------------------|

Im pretty sure that's it. It's a fair easy song to play.
Thanks to Mike for inspiring me to tab out the song by
telling me the 1st 3 note's played on bass guitar.
Добавлено: 09.06.2012
Другие материалы по этой песне:
  • Аккорды и текст

Страница создана 09.06.2012
http://primanota.ru/her-latest-flame/bullets-and-staples-bass-chords.htm
Привет, Гость.
Предлагаем пройти революционный курс по гитаре.
Подарок от PrimaNota.Ru, забирай!