PrimaNota.ru - самый крупный в мире бесплатный архив песенных текстов, аккордов, табулатур и нот


Her Bright Skies - Woh Oh Woh Oh Oh I Know - таба, видео

Регистрация Запомнить меня
Войти через:  Facebook Google Twitter Vk Yandex Mail.ru

Her Bright Skies - Woh Oh Woh Oh Oh I Know - таба, видео

Печатать
Просмотров: 113
Tabbed by: Joshua Garcia (halofreak731@aol.com)

Tabs for the song: Woh Oh, Woh, Oh, Oh (I Know) by Herbrightskies
Please rate and let me know if you have any corrections. Thank you.

Decided to tab a song after stumbling upon a conversation on Myspace with some Swedish guy and the
band saying how he can't find any tabs. I did a review for this band, but I never tabbed a song for
them, and I only know 2. The other one I know is Burn All The Small Towns, their most popular
track. Finally finished tabbing it.


Tuning: Drop C# (C# G# C# F# A# D#)


Intro
Guitar 1:
D#||-----------------------|
A#||-----------------------|
F#||-----------------------|
C#||---------2-------------|
G#||---------2-------------|
C#||---5-4-0-2------5-4-0--|


Guitar 2:
D#||-----|
A#||-----|
F#||--9--|
C#||--x--|
G#||--7--|
C#||-----|



Pre-Verse
Guitar 1:
D#||-------------------------------------------------------------------------|
A#||-------------------------------------------------------------------------|
F#||------------------4-44-444-444-777-5-55-555-555-555-7-77-777-777---------|
C#||-2-22-222-222-222-4-44-444-444-777-5-55-555-555-555-7-77-777-777---------|
G#||-2-22-222-222-222-2-22-222-222-555-3-33-333-333-333-5-55-555-555---------|
C#||-2-22-222-222-222-------------------------------------------------5-4-0--|


D#||-----------------------------------------------------------------------|
A#||-----------------------------------------------------------------------|
F#||------------------4-44-444-444-777---55-555-555-555-7-77-777-777-777---|
C#||-2-22-222-222-222-4-44-444-444-777---55-555-555-555-7-77-777-777-777---|
G#||-2-22-222-222-222-2-22-222-222-555---33-333-333-333-5-55-555-555-555---|
C#||-2-22-222-222-222------------------------------------------------------|


Guitar 2:
D#||----------------------------------------------------------------------------|
A#||------------------8-7-----------8-7------------8-7------------8-7---8-7-----|
F#||-9\4-----11\7---------7-9-7---------7-9-7----------7-9-7----------7-----7---|
C#||----------------5-----------0-5-----------0-5------------0-5----------------|
G#||----------------------------------------------------------------------------|
C#||----------------------------------------------------------------------------|


D#||-----------------------------------------------------------------------------|
A#||--------------------8-7-----------8-7------------8-7------------8-7---8-7----|
F#||-9\4--------------------7-9-7---------7-9-7----------7-9-7----------7-----7--|
C#||-----7-5---7--9\4-------------0-5-----------0-5------------0-5---------------|
G#||-----------------------------------------------------------------------------|
C#||-----------------------------------------------------------------------------|



Verse
Guitar 1:
D#||-------------------------------------------------|
A#||-------------------------------------------------|
F#||--9----------9-7----------7-5--5-5-5-5-5--7-7-7--| x3
C#||--9----------9-7----------7-5--5-5-5-5-5--7-7-7--|
G#||--7--7-7-7-7-7-5--5-5-5-5-5-3--3-3-3-3-3--5-5-5--|
C#||-------------------------------------------------|
         . . . .      . . . .

D#||-------------------------------|
A#||-------------------------------|
F#||--9----------9-7----------7-5--|
C#||--9----------9-7----------7-5--|
G#||--7--7-7-7-7-7-5--5-5-5-5-5-3--|
C#||-------------------------------|
         . . . .      . . . .


Guitar 2:
D#||--------------------------------------------------|
A#||--8----------8-7----------7-8--8-8-8-8-8--7-7-7---|
F#||--7--7-7-7-7-7-7--7-7-7-7-7-7--7-7-7-7-7--7-7-7---| x3
C#||--------------------------------------------------|
G#||--------------------------------------------------|
C#||--------------------------------------------------|
         . . . .      . . . .


D#||--------------------------------------|
A#||--8----------8-7---7-8-7--------7--8--|
F#||--7--7-7-7-7-7-7---------7-7-9--------|
C#||--------------------------------------|
G#||--------------------------------------|
C#||--------------------------------------|
         . . . .



Pre-Chorus
Guitar 1:
D#||------------------------------------------|
A#||------------------------------------------|
F#||-7--------------7---5--------------7---9--|
C#||-7-----7----9---7---5-----7----9---7---9--|
G#||-5-----7----9---5---3-----7----9---5---7--|
C#||-------7----9-------------7----9----------|


Guitar 2 (Not sure):
D#||--------------------------------|
A#||--------------------------------|
F#||--------7-----------7-------9---|
C#||------7-----------7----x2---x---|
G#||----5-----------5-----------7---|
C#||--5-----------0-----------------|



Chorus
Guitar 1:
D#||-------------------------------------------------------------------------|
A#||-------------------------------------------------------------------------|
F#||------------------4-44-444-444-777-5-55-555-555-555-7-77-777-777---------| x2
C#||-2-22-222-222-222-4-44-444-444-777-5-55-555-555-555-7-77-777-777---------|
G#||-2-22-222-222-222-2-22-222-222-555-3-33-333-333-333-5-55-555-555---------|
C#||-2-22-222-222-222-------------------------------------------------5-4-0--|


Guitar 2:
D#||------------------------------------------------------------|
A#||--8-7-----------8-7------------8-7------------8-7---8-7-----|
F#||------7-9-7---------7-9-7----------7-9-7----------7-----7---| x2
C#||------------0-5-----------0-5------------0-5----------------|
G#||------------------------------------------------------------|
C#||------------------------------------------------------------|



Breakdown
Guitar 1:
D#||--------------|         \
A#||--------------|          \
F#||--------------| x4        \
C#||-0---2--2\0---|            \
G#||-0---2--2\0---|             \
C#||-0---2--2\0---|              \
                                  \  x2
                                  /  
D#||------------------|          /
A#||------------------|         /
F#||------------------|        /
C#||------------------|       /
G#||------------------|      /
C#||-0-2-4-5-4-2-2-0--|     /


Guitar 2:
D#||--------------------------------|
A#||--7h8-7p5-----------------------|
F#||--------------------------------| x2
C#||-----------7/9-7-5------5--5\---|
G#||-------------------5-5----------|
C#||--------------------------------|



Verse
Guitar 1:
D#||-------------------------------------------------|
A#||-------------------------------------------------|
F#||--9----------9-7----------7-5--5-5-5-5-5--7-7-7--|
C#||--9----------9-7----------7-5--5-5-5-5-5--7-7-7--|
G#||--7--7-7-7-7-7-5--5-5-5-5-5-3--3-3-3-3-3--5-5-5--|
C#||-------------------------------------------------|
         . . . .      . . . .

D#||-------------------------------|
A#||-------------------------------|
F#||--9----------9-7----------7-5--|
C#||--9----------9-7----------7-5--|
G#||--7--7-7-7-7-7-5--5-5-5-5-5-3--|
C#||-------------------------------|
         . . . .      . . . .


Guitar 2:
D#||--------------------------------------------------|
A#||--8----------8-7----------7-8--8-8-8-8-8--7-7-7---|
F#||--7--7-7-7-7-7-7--7-7-7-7-7-7--7-7-7-7-7--7-7-7---|
C#||--------------------------------------------------|
G#||--------------------------------------------------|
C#||--------------------------------------------------|
         . . . .      . . . .

D#||--------------------------------------|
A#||--8----------8-7---7-8-7--------7--8--|
F#||--7--7-7-7-7-7-7---------7-7-9--------|
C#||--------------------------------------|
G#||--------------------------------------|
C#||--------------------------------------|
         . . . .



Pre-Chorus
Guitar 1:
D#||------------------------------------------|
A#||------------------------------------------|
F#||-7--------------7---5--------------7---9--|
C#||-7-----7----9---7---5-----7----9---7---9--|
G#||-5-----7----9---5---3-----7----9---5---7--|
C#||-------7----9-------------7----9----------|


Guitar 2 (Not sure):
D#||--------------------------------|
A#||--------------------------------|
F#||--------7-----------7-------9---|
C#||------7-----------7----x2---x---|
G#||----5-----------5-----------7---|
C#||--5-----------0-----------------|



Chorus:
Guitar 1:
D#||-------------------------------------------------------------------------|
A#||-------------------------------------------------------------------------|
F#||------------------4-44-444-444-777-5-55-555-555-555-7-77-777-777---------| x2
C#||-2-22-222-222-222-4-44-444-444-777-5-55-555-555-555-7-77-777-777---------|
G#||-2-22-222-222-222-2-22-222-222-555-3-33-333-333-333-5-55-555-555---------|
C#||-2-22-222-222-222-------------------------------------------------5-4-0--|


Guitar 2:
D#||------------------------------------------------------------|
A#||--8-7-----------8-7------------8-7------------8-7---8-7-----|
F#||------7-9-7---------7-9-7----------7-9-7----------7-----7---| x2
C#||------------0-5-----------0-5------------0-5----------------|
G#||------------------------------------------------------------|
C#||------------------------------------------------------------|



Bridge
Guitar 1:
D#||-------------------------------------------------------------------------|
A#||-------------------------------------------------------------------------|
F#||------------------4-44-444-444-777-5-55-555-555-555-7-77-777-777---------|
C#||-2-22-222-222-222-4-44-444-444-777-5-55-555-555-555-7-77-777-777---------|
G#||-2-22-222-222-222-2-22-222-222-555-3-33-333-333-333-5-55-555-555---------|
C#||-2-22-222-222-222-------------------------------------------------5-4-0--|
     . .. ... ... ... . .. ... ... ... . .. ... ... ... . .. ... ...  . . .

D#||------------------------------------|
A#||------------------------------------|
F#||------------------4-44-444-444-77---|
C#||-2-22-222-222-222-4-44-444-444-77---|
G#||-2-22-222-222-222-2-22-222-222-55---|
C#||-2-22-222-222-222-------------------|
     . .. ... ... ... . .. ... ... ..


Guitar 1:
D#||---------------------------------------|
A#||---------------------------------------|
F#||-5-55-555-555-555-7-77-777-777---------|
C#||-5-55-555-555-555-7-77-777-777---------|
G#||-3-33-333-333-333-5-55-555-555---------|
C#||--------------------------------5-4-0--|


Guitar 2:
D#||-------------------------------------------------------|
A#||---8-7-----------8-7------------8-7------------8-7-----|
F#||-------7-9-7---------7-9-7----------7-9-7----------7---|
C#||-5-----------0-5-----------0-5------------0-5----------|
G#||-------------------------------------------------------|
C#||-------------------------------------------------------|



Chorus:
Guitar 1:
D#||-------------------------------------------------------------------------|
A#||-------------------------------------------------------------------------|
F#||------------------4-44-444-444-777-5-55-555-555-555-7-77-777-777---------| x2
C#||-2-22-222-222-222-4-44-444-444-777-5-55-555-555-555-7-77-777-777---------|
G#||-2-22-222-222-222-2-22-222-222-555-3-33-333-333-333-5-55-555-555---------|
C#||-2-22-222-222-222-------------------------------------------------5-4-0--|


Guitar 2:
D#||------------------------------------------------------------|
A#||--8-7-----------8-7------------8-7------------8-7---8-7-----|
F#||------7-9-7---------7-9-7----------7-9-7----------7-----7---| x2
C#||------------0-5-----------0-5------------0-5----------------|
G#||------------------------------------------------------------|
C#||------------------------------------------------------------|



Outro
Guitar 1:
D#||--------------|
A#||--------------|
F#||--------------|
C#||-0---2--2\0---|
G#||-0---2--2\0---|
C#||-0---2--2\0---|




Tablature Legend
----------------
 h   - hammer-on
 p   - pull-off
 b   - bend
 r   - release bend
 *   - pinch harmonic
 '   - natural harmonic
 x   - mute note
 .   - palm mute
 /   - slide down
 \   - slide up
Добавлено: 05.06.2012
Другие материалы по этой песне:
  • Аккорды и текст

Страница создана 05.06.2012
http://primanota.ru/her-bright-skies/woh-oh-woh-oh-oh-i-know-chords.htm
Привет, Гость.
Предлагаем пройти революционный курс по гитаре.
Подарок от PrimaNota.Ru, забирай!