PrimaNota.ru - самый крупный в мире бесплатный архив песенных текстов, аккордов, табулатур и нот


Her Bright Skies - Sober Nights - текст песни, таба, видео

Регистрация Запомнить меня
Войти через:  Facebook Google Twitter Vk Yandex Mail.ru

Her Bright Skies - Sober Nights - текст песни, таба, видео

Печатать
Просмотров: 119
Уроки эстрадного вокала в Санкт-Петербурге
INTRO
0:01
e|------12~---11h12p11----9-----------------------|
B|-9--------------------12---9--------------------|
G|---11--------------------------11---------------| 
D|------------------------------------------------|
A|------------------------------------------------|
E|------------------------------------------------|

INTRO
0:07
e|------12~---11h12p11----9-----------------------|
B|/9--------------------12---9--------------------|
G|---11--------------------------11---9~----------| 
D|------------------------------------------------|
A|------------------------------------------------|
E|------------------------------------------------|

VERSE
0:14
e|---------------------------------------------------------|
B|-9-----9-----9-----9-----12-----12-----10-----10---------|
G|----9-----9-----9-----9------9------9------9------9------| x4
D|--11-11-11-11-11-11-11-11--11-11--11-11--11-11--11-11----|
A|---------------------------------------------------------|
E|---------------------------------------------------------|

PRE-CHORUS
0:39
e|------------------------------------------------|
B|------------------------------------------------|
G|-----------------------------------9~~----------|
D|-4-4-4-6-6-6-7-7-7-9-9-9-9-9-9-9-9-9~~----------|
A|-4-4-4-6-6-6-7-7-7-9-9-9-9-9-9-9-9-7~~----------|
E|-2-2-2-4-4-4-5-5-5-7-7-7-7-7-7-7-7--------------|

PRE-CHORUS
0:45
e|-----------------------------------xxxx---------|
B|-----------------------------------xxxx---------|
G|-----------------------------------xxxx---------|
D|-4-4-4-6-6-6-7-7-7-9-9-9-9-9-9-9-9-xxxx---------|
A|-4-4-4-6-6-6-7-7-7-9-9-9-9-9-9-9-9-xxxx---------|
E|-2-2-2-4-4-4-5-5-5-7-7-7-7-7-7-7-7-xxxx---------|

CHORUS
0:49
e|----------12-11---------------------------------|
B|-9h10p9-9-------12-10p9h10p9--------------------|
G|------------------------------------------------| x8
D|------------------------------------------------|
A|------------------------------------------------|
E|------------------------------------------------|

RIFF
1:14
e|-12-11---------12-11----------------------------|
B|-------12-9h10-------12-9h10--------------------|
G|------------------------------------------------|
D|------------------------------------------------|
A|------------------------------------------------|
E|------------------------------------------------|

VERSE
1:18
e|---------------------------------------------------------|
B|-9-----9-----9-----9-----12-----12-----10-----10---------|
G|----9-----9-----9-----9------9------9------9------9------| x4
D|--11-11-11-11-11-11-11-11--11-11--11-11--11-11--11-11----|
A|---------------------------------------------------------|
E|---------------------------------------------------------|

PRE-CHORUS
1:43
e|------------------------------------------------|
B|------------------------------------------------|
G|-----------------------------------9~~----------|
D|-4-4-4-6-6-6-7-7-7-9-9-9-9-9-9-9-9-9~~----------|
A|-4-4-4-6-6-6-7-7-7-9-9-9-9-9-9-9-9-7~~----------|
E|-2-2-2-4-4-4-5-5-5-7-7-7-7-7-7-7-7--------------|

PRE-CHORUS
1:49
e|-----------------------------------xxxx---------|
B|-----------------------------------xxxx---------|
G|-----------------------------------xxxx---------|
D|-4-4-4-6-6-6-7-7-7-9-9-9-9-9-9-9-9-xxxx---------|
A|-4-4-4-6-6-6-7-7-7-9-9-9-9-9-9-9-9-xxxx---------|
E|-2-2-2-4-4-4-5-5-5-7-7-7-7-7-7-7-7-xxxx---------|

CHORUS
1:53
e|----------12-11---------------------------------|
B|-9h10p9-9-------12-10p9h10p9--------------------|
G|------------------------------------------------| x8
D|------------------------------------------------|
A|------------------------------------------------|
E|------------------------------------------------|

BRIDGE
2:18
e|-12-11------------------------------------------|
B|-------12-9h10----------------------------------|
G|------------------------------------------------| x14
D|------------------------------------------------|
A|------------------------------------------------|
E|------------------------------------------------|

BRIDGE
2:41
e|-12-11------------------------------------------|
B|-------12~~-------------------------------------|
G|------------------------------------------------|
D|------------------------------------------------|
A|------------------------------------------------|
E|------------------------------------------------|

BRIDGE
2:47
e|----------12-11---------------------------------|
B|-9h10p9-9-------12-10p9h10p9--------------------|
G|------------------------------------------------| x4
D|------------------------------------------------|
A|------------------------------------------------|
E|------------------------------------------------|

CHORUS
3:10
e|----------12-11---------------------------------|
B|-9h10p9-9-------12-10p9h10p9--------------------|
G|------------------------------------------------| x8
D|------------------------------------------------|
A|------------------------------------------------|
E|------------------------------------------------|

OUTRO
3:35
e|-12-11------------------------------------------|
B|-------12~--------------------------------------|
G|-------------9-11-------------------------------|
D|------------------11~~--------------------------|
A|------------------------------------------------|
E|------------------------------------------------|

-Thanks! 
Добавлено: 21.08.2013
Другие материалы по этой песне:
  • Аккорды и текст

Страница создана 21.08.2013
http://primanota.ru/her-bright-skies/sober-nights-chords.htm
Привет, Гость.
Предлагаем пройти революционный курс по гитаре.
Подарок от PrimaNota.Ru, забирай!