PrimaNota.ru - самый крупный в мире бесплатный архив песенных текстов, аккордов, табулатур и нот


Her Bright Skies - Heartbreaker - текст песни, таба, видео

Регистрация Запомнить меня
Войти через:  Facebook Google Twitter Vk Yandex Mail.ru

Her Bright Skies - Heartbreaker - текст песни, таба, видео

Печатать
Просмотров: 188
Уроки эстрадного вокала в Санкт-Петербурге
Band: Her Bright Skies
Song: Heartbreaker
Album: Making A Scene
Tuning: Drop C#(C#,G#,C#,F#,A#,D#)

Her Bright Skies is a Swedish band. I've not figured out the entire
song, but if I do, I'll post it here:)
PS. This is my first tab. evar.

Intro
First guitar, use much equalizer:
D#|-----------10s12--------|-------10s12--10h12---------|x 'til verse starts
A#|------------------------|--------------------10h12---| Slide or hammer-on
F#|-12h9p12----------------|-12p9-----------------------| as you prefer.
C#|------------------------|----------------------------|Those are 10's
G#|------------------------|----------------------------|
C#|------------------------|----------------------------|

Second Guitar(Easiest part):                       [2nd time]
D#|--------------------------|------------------------------------|x2
A#|--------------------------|------------------------------------|
F#|--------------------------|------------------------------------|
C#|-2---5---0~---0000000-----|-5---5---5---5555555-[5]------------|
G#|-2---5---0~---0000000-----|-2-2-2-2-3---3333333-[3]------------|
C#|-2---5---0~---0000000-----|------------------------------------|
                 ......          .    .    ......

D#|--------------------------|------------------------------------|
A#|--------------------------|------------------------------------|
F#|--------------------------|------------------------------------|
C#|-222-555-0000000000-------|-555555-555555----------------------|
G#|-222-555-0000000000-------|-222222-333333-555------------------|
C#|-222-555-0000000000-------|---------------555------------------|


D#|--------------------------|------------------------------------|
A#|--------------------------|------------------------------------|
F#|--------------------------|------------------------------------|
C#|-222-555-0000000000-------|-5---5---5-5555---------------------|
G#|-222-555-0000000000-------|-2-2-2-2-3-3333-555\----------------|
C#|-222-555-0000000000-------|----------------555\----------------|
                                 .   .
Verse1:

Bassline

Then guitar kicks in
D#|-------------------------|--------------------------------------|
A#|-------------------------|--------------------------------------|
F#|-------------------------|--------------------------------------|
C#|-------------------------|-555555-5555555-----------------------|
G#|-222-555-00000000--------|-222222-3333333-555-------------------|
C#|-222-555-00000000--------|----------------555-------------------|
    ... ... ........          ...... ....... ...

                                       Losen pm
D#|-------------------------|--------------------------------------|
A#|-------------------------|--------------------------------------|
F#|-------------------------|--------------------------------------|
C#|-------------------------|-5---5---5-5555555-5------------------|
G#|-222-555-000000000-------|-2-2-2-2-3-3333333-3------------------|
C#|-222-555-000000000-------|--------------------------------------|
    ... ... .........           .   .   .....

Chorus:
D#|------------------------|----------------------------------------|
A#|------------------------|----------------------------------------|
F#|------------------------|----------------------------------------|
C#|------------------------|-555555-5555555-------------------------|
G#|-222-555-00000000-------|-222222-3333333-555---------------------|
C#|-222-555-00000000-------|----------------555---------------------|


D#|-------------------------|--------------------------------------|
A#|-------------------------|--------------------------------------|
F#|-------------------------|--------------------------------------|
C#|-------------------------|-5---5---5-5555-----------------------|
G#|-222-555-000000000-------|-2-2-2-2-3-3333-555-------------------|
C#|-222-555-000000000-------|----------------555-------------------|
                                .   .   .... ...

Verse2:
Guitar1
D#|------------------------|---------------------------------------|x4
A#|------------------------|---------------------------------------|
F#|------------------------|---------------------------------------|
C#|-55555555-444444-4------|---2--2-2--2--2-2----------------------|
G#|-77777777-55555555------|-3333333333333333----------------------|
C#|------------------------|---------------------------------------|
    ........ ..... .         .. .. . .. .. .
Guitar2
D#|-----------------------|
A#|-12-----10-----8-----7-|
F#|----9-9----9-9---9-9---|
C#|-----------------------|
G#|-----------------------|
C#|-----------------------|
Добавлено: 06.06.2012
Другие материалы по этой песне:

Страница создана 07.05.2012
http://primanota.ru/her-bright-skies/heartbreaker-chords.htm
Привет, Гость.
Предлагаем пройти революционный курс по гитаре.
Подарок от PrimaNota.Ru, забирай!