PrimaNota.ru - самый крупный в мире бесплатный архив песенных текстов, аккордов, табулатур и нот


Her Bright Skies - Burn All The Small Towns - текст песни, таба, видео

Регистрация Запомнить меня
Войти через:  Facebook Google Twitter Vk Yandex Mail.ru

Her Bright Skies - Burn All The Small Towns - текст песни, таба, видео

Печатать
Просмотров: 107
Tabbed by: Joshua Garcia (halofreak731@aol.com)

Tabs for the song: Burn All The Small Towns by Herbrightskies
Please rate and let me know if you have any corrections. Thank you.

As promised here's the tabs for Burn All The Small Towns.
Not to many people know these songs exist but the other song I tabbed for 
this band has a few hits so it's nice to help out at least some people.


Tuning: Drop C# (C# G# C# F# A# D#)


Intro
Guitar 1:
D#||-------------|-------------------------|-------------|--------|
A#||-------------|-------------------------|-------------|--------|
F#||--9--10------|--------------10--9------|--9--10------|---10---|
C#||---------10--|------10-------------10--|---------10--|---10---|
G#||-------------|--12------12-------------|-------------|---8----|
C#||-------------|-------------------------|-------------|--------|


D#||---------|
A#||---------|
F#||---------| x2
C#||--10-----|
G#||------7--|
C#||---------|


Guitar 2:
D#||-------|-------|-------|-------|
A#||-------|-------|-------|-------|
F#||---3---|-------|---5---|---5---| x2
C#||---3---|---0---|---5---|---5---|
G#||---1---|---0---|---3---|-------|
C#||-------|---0---|-------|-------|



Pre-Verse
Guitar 1:
D#||------------------------------------------------|
A#||------------------------------------------------|
F#||------9-10-9--------------------9----9------x2--|
C#||-0-0---------10-10-12--10-12-10---10---10-------|
G#||-0-0--------------------------------------------|
C#||-0-0--------------------------------------------|


D#||------------------------------------------------------------------------------------------|
A#||------------------------------------------------------------------------------------------|
F#||-10-10-10-10-10-10-10-10-10-10-10-10-10-10-10-10-9-9-9-9-9-9-9-9-12-12-12-12-12-12-12-12--| x2
C#||-x--x--x--x--x--x--x--x--x--x--x--x--x--x--x--x--x-x-x-x-x-x-x-x-x--x--x--x--x--x--x--x---|
G#||-8--8--8--8--8--8--8--8--8--8--8--8--8--8--8--8--7-7-7-7-7-7-7-7-10-10-10-10-10-10-10-10--|
C#||------------------------------------------------------------------------------------------|


Guitar 2:
D#||-----------------------------------------|-------------------------------------|
A#||-----------------------------------------|-------------------------------------|
F#||------------------------------------x2---|-------------------------------------| x2
C#||-0-0--x-x-x--3-5-0--x-x-x-x-x-x-x--------|--88888888888888887777777777777777---|
G#||-0-0--x-x-x--3-5-0--x-x-x-x-x-x-x--------|--88888888888888887777777777777777---|
C#||-0-0--x-x-x--3-5-0--x-x-x-x-x-x-x--------|--88888888888888887777777777777777---|



Verse
Guitar 1:
D#||-------------|------------------|----------------------|------------------------------|
A#||-------------|------------------|----------------------|------------------------------|
F#||--77--77--7--|------------------|--10-10---10-10---10--|--99--99--9---9-10-9----12-9--|
C#||--77--77--7--|--1010--1010--10--|--10-10---10-10---10--|--xx--xx--x----------10-------|
G#||--55--55--5--|--1010--1010--10--|--8--8----8--8----8---|--77--77--7-------------------|
C#||-------------|--1010--1010--10--|----------------------|------------------------------|


Guitar 2:
D#||-------------|-------------|-------------|------------------|
A#||-------------|-------------|-------------|------------------|
F#||-------------|-------------|-------------|------------------|
C#||--00--00--0--|--88--88--8--|--55--55--5--|--1010--1010--10--|
G#||--00--00--0--|--88--88--8--|--55--55--5--|--1010--1010--10--|
C#||--00--00--0--|--88--88--8--|--55--55--5--|--1010--1010--10--|


D#||------------------|-----------------|------------------|------------------|
A#||------------------|-----------------|------------------|------------------|
F#||------------------|-----------------|------------------|------------------|
C#||--00--00--0-0--0--|--88--88--8-8--8-|--55--55--5-5--5--|--1010--1010--10--|
G#||--00--00--0-0--0--|--88--88--8-8--8-|--55--55--5-5--5--|--1010--1010--10--|
C#||--00--00--0-0--0--|--88--88--8-8--8-|--55--55--5-5--5--|--1010--1010--10--|



Pre-Chorus
Guitar 1:
D#||--------------------------------------|--------------------------------------|
A#||--------------------------------------|--------------------------------------|
F#||-10-----9-----10-----9-----10---------|---10-----9-----10-----9-----12---9---|
C#||----0-0---0-0----0-0---0-0----0-0-10--|-0----0-0---0-0----0-0---0-0----0-----|
G#||--------------------------------------|--------------------------------------|
C#||--------------------------------------|--------------------------------------|


D#||--------------------------------------|------------------------|
A#||--------------------------------------|------------------------|
F#||-10-----9-----10-----9-----10---------|---10-----9-------------|
C#||----0-0---0-0----0-0---0-0----0-0-10--|-0----0-0---0---0-0-0---|
G#||--------------------------------------|----------------0-0-0---|
C#||--------------------------------------|----------------0-0-0---|


Guitar 2 (Tremolo Picking):
D#||---------------------------------------------------|
A#||---------------------------------------------------|
F#||---------------------------------------------------|
C#||-------101010101010------101010101010----10101010--|
G#||---------------------------------------------------|
C#||-888888------------888888------------8888----------|


D#||---------------------------------------------------|
A#||---------------------------------------------------|
F#||---------------------------------------------------|
C#||-------101010101010------101010101010----10101010--|
G#||---------------------------------------------------|
C#||-000000------------000000------------0000----------|


D#||---------------------------------------------------|
A#||---------------------------------------------------|
F#||---------------------------------------------------|
C#||-------101010101010------101010101010----10101010--|
G#||---------------------------------------------------|
C#||-888888------------888888------------8888----------|


D#||-------------------------------------------|
A#||-------------------------------------------|
F#||-------------------------------------------|
C#||-------101010101010------101010101010--0---|
G#||---------------------------------------0---|
C#||-000000------------000000--------------0---|



Chorus
Guitar 1:
D#||-----------------------------------------------------------------------|
A#||-----------------------------------------------------------------------|
F#||------------------3-33333333333333------------------5-555555-----------| x2
C#||-0-00000000000000-3-33333333333333-0-00000000000000-5-555555-3-3333h5--|
G#||-0-00000000000000-1-11111111111111-0-00000000000000-3-333333-3-3333h5--|
C#||-0-00000000000000------------------0-00000000000000----------3-3333h5--|


Guitar 2:
D#||---------------------------------------|--------------------------------------------|
A#||---------------------------------------|--------------------------------------------|
F#||-13-----------13------------13---------|-10-------9-------10-------9-------10----9--|
C#||-------10------------10----------10----|----10-10---10-10----10-10---10-10----10----|
G#||---0-0----0-0----0-0----0-0----0----0--|--------------------------------------------|
C#||---------------------------------------|--------------------------------------------|


D#||-----------------------------------------------|----------------------------------------|
A#||-----------------------------------------------|----------------------------------------|
F#||-12-------9-------12-------9-------12----9-----|-----10-9----9-10----12-12-12-14-12-----|
C#||----10-10---10-10----10-10---10-10----10---10--|-10-------10------10----------------14--|
G#||-----------------------------------------------|----------------------------------------|
C#||-----------------------------------------------|----------------------------------------|



Breakdown
Guitar 1:
D#||-----------------|---------------------------------|
A#||-----------------|---------------------------------|
F#||-----------------|---------------------------------|
C#||--00-----0--0----|--00-----0--0-------------0-0-0--|
G#||--00-----0--0----|--00-----0--0--let-ring---0-0-0--|
C#||--00-----0--0----|--00-----0--0-------------0-0-0--|
                                                . . .

D#||-----------------|-------------------------|
A#||-----------------|-------------------------|
F#||-----------------|-------------------------|
C#||--00-----0--0----|--00-----0--0------------|
G#||--00-----0--0----|--00-----0--0--let-ring--|
C#||--00-----0--0----|--00-----0--0------------|


Guitar 2:
D#||-----------------|-------------------------|
A#||-----------------|-------------------------|
F#||--1010---10--10--|--1010---10--10----------|
C#||--1212---12--12--|--1212---12--12---0-0-0--|
G#||-----------------|------------------0-0-0--|
C#||-----------------|------------------0-0-0--|
                                        . . .

D#||-----------------|-----------------------|
A#||-----------------|-----------------------|
F#||--1010---10--10--|--1010---10--10---9----|
C#||--1212---12--12--|--1212---12--12-----0--|
G#||-----------------|-----------------------|
C#||-----------------|-----------------------|



Bridge
Guitar 1:
D#||--------------------------------------------------------------|
A#||--------------------------------------------------------------|
F#||--10-----9----------10-----9---------------999999-----999999--| x2
C#||-----0-0---0-0-12-0----0-0---0-0-12-0---0--xxxxxx--0--xxxxxx--|
G#||----------------------------------------0--777777--0--777777--|
C#||----------------------------------------0----------0----------|


Guitar 2:
D#||----------------------------------|
A#||----------------------------------|
F#||-----------------999999---999999--| x2
C#||-888888-555555-0-xxxxxx-0-xxxxxx--|
G#||-888888-555555-0-777777-0-777777--|
C#||-888888-555555-0--------0---------|



Pre-Chorus
Guitar 1:
D#||--------------------------------------|--------------------------------------|
A#||--------------------------------------|--------------------------------------|
F#||-10-----9-----10-----9-----10---------|---10-----9-----10-----9-----12---9---|
C#||----0-0---0-0----0-0---0-0----0-0-10--|-0----0-0---0-0----0-0---0-0----0-----|
G#||--------------------------------------|--------------------------------------|
C#||--------------------------------------|--------------------------------------|


D#||--------------------------------------|------------------------|
A#||--------------------------------------|------------------------|
F#||-10-----9-----10-----9-----10---------|---10-----9-------------|
C#||----0-0---0-0----0-0---0-0----0-0-10--|-0----0-0---0---0-0-0---|
G#||--------------------------------------|----------------0-0-0---|
C#||--------------------------------------|----------------0-0-0---|


Guitar 2 (Tremolo Picking):
D#||---------------------------------------------------|
A#||---------------------------------------------------|
F#||---------------------------------------------------|
C#||-------101010101010------101010101010----10101010--|
G#||---------------------------------------------------|
C#||-888888------------888888------------8888----------|


D#||---------------------------------------------------|
A#||---------------------------------------------------|
F#||---------------------------------------------------|
C#||-------101010101010------101010101010----10101010--|
G#||---------------------------------------------------|
C#||-000000------------000000------------0000----------|


D#||---------------------------------------------------|
A#||---------------------------------------------------|
F#||---------------------------------------------------|
C#||-------101010101010------101010101010----10101010--|
G#||---------------------------------------------------|
C#||-888888------------888888------------8888----------|


D#||------------------------------------|
A#||------------------------------------|
F#||------------------------------------|
C#||-------101010101010----0-0-0---x-x--|
G#||-----------------------0-0-0---x-x--|
C#||-000000------------00--0-0-0---x-x--|



Chorus
Guitar 1:
D#||-----------------------------------------------------------------------|
A#||-----------------------------------------------------------------------|
F#||------------------3-33333333333333------------------5-555555-----------| x2
C#||-0-00000000000000-3-33333333333333-0-00000000000000-5-555555-3-3333h5--|
G#||-0-00000000000000-1-11111111111111-0-00000000000000-3-333333-3-3333h5--|
C#||-0-00000000000000------------------0-00000000000000----------3-3333h5--|


Guitar 2:
D#||---------------------------------------|--------------------------------------------|
A#||---------------------------------------|--------------------------------------------|
F#||-13-----------13------------13---------|-10-------9-------10-------9-------10----9--|
C#||-------10------------10----------10----|----10-10---10-10----10-10---10-10----10----|
G#||---0-0----0-0----0-0----0-0----0----0--|--------------------------------------------|
C#||---------------------------------------|--------------------------------------------|


D#||-----------------------------------------------|----------------------------------------|
A#||-----------------------------------------------|----------------------------------------|
F#||-12-------9-------12-------9-------12----9-----|-----10-9----9-10----12-12-12-14-12-----|
C#||----10-10---10-10----10-10---10-10----10---10--|-10-------10------10----------------14--|
G#||-----------------------------------------------|----------------------------------------|
C#||-----------------------------------------------|----------------------------------------|



Outro
Guitar 1:
D#||-------------|
A#||-------------|
F#||-------------|
C#||--0-0-0-0-0--|
G#||--0-0-0-0-0--|
C#||--0-0-0-0-0--|

Guitar 2:
D#||---------------|
A#||---------------|
F#||--12-------12--|
C#||--12-------12--|
G#||---------------|
C#||---------------|





Tablature Legend
----------------
 h   - hammer-on
 p   - pull-off
 b   - bend
 r   - release bend
 *   - pinch harmonic
 '   - natural harmonic
 x   - mute note
 .   - palm mute
 /   - slide down
 \   - slide up
Добавлено: 19.04.2012
Другие материалы по этой песне:
  • Аккорды и текст

Страница создана 19.04.2012
http://primanota.ru/her-bright-skies/burn-all-the-small-towns-chords.htm
Привет, Гость.
Предлагаем пройти революционный курс по гитаре.
Подарок от PrimaNota.Ru, забирай!