PrimaNota.ru - самый крупный в мире бесплатный архив песенных текстов, аккордов, табулатур и нот


Henry Van Dyke - Ode To Joy - таба, видео

Регистрация Запомнить меня
Войти через:  Facebook Google Twitter Vk Yandex Mail.ru

Henry Van Dyke - Ode To Joy - таба, видео

Печатать
Просмотров: 32
-------------------------------------------------------------------------------
                             SONG NAME - Band Name
-------------------------------------------------------------------------------
Tabbed by:
E-mail:
key of F
Tuning:E-A-D-G-B-e

e|---------------------------------------------------------------------------|
B|------------1---1--------------------------------------------------------1-|
G|---2-2---3----------3-2----0-----------0-2---2---0----0----2------2--3-----|
D|----------------------3---------3--3---------------------------------------|
A|---3-3---3--3---3---3------3----3--3---3-3---3---3----3----3------3--3---3-|
E|---------------------------------------------------------------------------|
   Joyful joyful, we adore thee, God of glory Lord of love; hearts unfold like 
e|---------------------------------------------------------------------------|
B|-----1---------------------------------------------------------------------|
G|-------------3-2---0----------0---2---0---------0----0---------------------|
D|---------------3---2---3--3---------------3-3---2----2---------------------|
A|-----3-------3---------3--3---3---3---3---3-3------------------------------|
E|---------------------------------------------------------------------------|
    flowers before thee opening to the sun above melt the
e|---------------------------------------------------------------------------|
B|-----------------------------------------------------------------1--1------|
G|----2-------0---2-3-2--------0----2-3-2---0--------0-----2-2--3--------3---|
D|----3---3---2---3-3-3-3------2----3-3-3---2---3----2-----------------------|
A|----------------------------------------------3------3---3-3--3--3--3--3---|
E|---------------------------------------------------------------------------|
   clouds of sin and sadness drive the dark of doubt away giver of immortal
e|--------------------------------------1------------------------------------|
B|--------------------------------------1------------------------------------|
G|---2--0--------------0---2-----0------2------------------------------------|
D|---3---------3--3------------------3--3------------------------------------|
A|------3------3--3----3---3-----3-------------------------------------------|
E|---------------------------------------------------------------------------|
   gladness, fill us with the light of day  

************************************

| /   slide up
| \   slide down
| h   hammer-on
| p   pull-off
| ~   vibrato
| +   harmonic
| x   Mute note
| b   Bend
| pb  Pre-bend
| br  Bend release
| pbr Pre-bend release
| brb Bend release bend

************************************
Добавлено: 11.11.2015
Другие материалы по этой песне:
  • Аккорды и текст

Страница создана 11.11.2015
http://primanota.ru/henry-van-dyke/ode-to-joy-chords.htm
Привет, Гость.
Предлагаем пройти революционный курс по гитаре.
Подарок от PrimaNota.Ru, забирай!